  0
SECTION
  2
HEADER
  9
$ACADVER
  1
AC1015
  9
$ACADMAINTVER
 70
     6
  9
$DWGCODEPAGE
  3
ANSI_1252
  9
$INSBASE
 10
0.0
 20
0.0
 30
0.0
  9
$EXTMIN
 10
0.0
 20
0.0
 30
0.0
  9
$EXTMAX
 10
100.0
 20
100.0
 30
0.0
  9
$LIMMIN
 10
0.0
 20
0.0
  9
$LIMMAX
 10
100.0
 20
100.0
  9
$ORTHOMODE
 70
     0
  9
$REGENMODE
 70
     1
  9
$FILLMODE
 70
     1
  9
$QTEXTMODE
 70
     0
  9
$MIRRTEXT
 70
     1
  9
$LTSCALE
 40
1.0
  9
$ATTMODE
 70
     1
  9
$TEXTSIZE
 40
0.1666666667
  9
$TRACEWID
 40
0.05
  9
$TEXTSTYLE
  7
Standard
  9
$CLAYER
  8
0
  9
$CELTYPE
  6
ByLayer
  9
$CECOLOR
 62
   256
  9
$CELTSCALE
 40
1.0
  9
$DISPSILH
 70
     0
  9
$DIMSCALE
 40
1.0
  9
$DIMASZ
 40
0.09
  9
$DIMEXO
 40
0.05
  9
$DIMDLI
 40
0.38
  9
$DIMRND
 40
0.0
  9
$DIMDLE
 40
0.0
  9
$DIMEXE
 40
0.0625
  9
$DIMTP
 40
0.0
  9
$DIMTM
 40
0.0
  9
$DIMTXT
 40
0.1666666667
  9
$DIMCEN
 40
0.09
  9
$DIMTSZ
 40
0.0
  9
$DIMTOL
 70
     0
  9
$DIMLIM
 70
     0
  9
$DIMTIH
 70
     1
  9
$DIMTOH
 70
     1
  9
$DIMSE1
 70
     0
  9
$DIMSE2
 70
     0
  9
$DIMTAD
 70
     0
  9
$DIMZIN
 70
     0
  9
$DIMBLK
  1

  9
$DIMASO
 70
     1
  9
$DIMSHO
 70
     1
  9
$DIMPOST
  1

  9
$DIMAPOST
  1

  9
$DIMALT
 70
     0
  9
$DIMALTD
 70
     2
  9
$DIMALTF
 40
25.4
  9
$DIMLFAC
 40
1.0
  9
$DIMTOFL
 70
     0
  9
$DIMTVP
 40
0.0
  9
$DIMTIX
 70
     0
  9
$DIMSOXD
 70
     0
  9
$DIMSAH
 70
     0
  9
$DIMBLK1
  1

  9
$DIMBLK2
  1

  9
$DIMSTYLE
  2
Standard
  9
$DIMCLRD
 70
     0
  9
$DIMCLRE
 70
     0
  9
$DIMCLRT
 70
     0
  9
$DIMTFAC
 40
1.0
  9
$DIMGAP
 40
0.06
  9
$DIMJUST
 70
     0
  9
$DIMSD1
 70
     0
  9
$DIMSD2
 70
     0
  9
$DIMTOLJ
 70
     1
  9
$DIMTZIN
 70
     0
  9
$DIMALTZ
 70
     0
  9
$DIMALTTZ
 70
     0
  9
$DIMUPT
 70
     0
  9
$DIMDEC
 70
     2
  9
$DIMTDEC
 70
     2
  9
$DIMALTU
 70
     2
  9
$DIMALTTD
 70
     2
  9
$DIMTXSTY
  7
Standard
  9
$DIMAUNIT
 70
     0
  9
$DIMADEC
 70
     0
  9
$DIMALTRND
 40
0.0
  9
$DIMAZIN
 70
     0
  9
$DIMDSEP
 70
    46
  9
$DIMATFIT
 70
     3
  9
$DIMFRAC
 70
     0
  9
$DIMLDRBLK
  1

  9
$DIMLUNIT
 70
     2
  9
$DIMLWD
 70
    -2
  9
$DIMLWE
 70
    -2
  9
$DIMTMOVE
 70
     0
  9
$LUNITS
 70
     2
  9
$LUPREC
 70
     2
  9
$SKETCHINC
 40
0.1
  9
$FILLETRAD
 40
0.5
  9
$AUNITS
 70
     0
  9
$AUPREC
 70
     0
  9
$MENU
  1
.
  9
$ELEVATION
 40
0.0
  9
$PELEVATION
 40
0.0
  9
$THICKNESS
 40
0.0
  9
$LIMCHECK
 70
     0
  9
$CHAMFERA
 40
0.5
  9
$CHAMFERB
 40
0.5
  9
$CHAMFERC
 40
1.0
  9
$CHAMFERD
 40
0.0
  9
$SKPOLY
 70
     0
  9
$TDCREATE
 40
2456050.452258414
  9
$TDUCREATE
 40
2456050.660591748
  9
$TDUPDATE
 40
2456050.452263125
  9
$TDUUPDATE
 40
2456050.660596458
  9
$TDINDWG
 40
0.0000000116
  9
$TDUSRTIMER
 40
0.0000000116
  9
$USRTIMER
 70
     1
  9
$ANGBASE
 50
0.0
  9
$ANGDIR
 70
     0
  9
$PDMODE
 70
     0
  9
$PDSIZE
 40
-1.0
  9
$PLINEWID
 40
0.0
  9
$SPLFRAME
 70
     0
  9
$SPLINETYPE
 70
     6
  9
$SPLINESEGS
 70
     8
  9
$HANDSEED
  5
28F
  9
$SURFTAB1
 70
     6
  9
$SURFTAB2
 70
     6
  9
$SURFTYPE
 70
     6
  9
$SURFU
 70
     6
  9
$SURFV
 70
     6
  9
$UCSBASE
  2

  9
$UCSNAME
  2

  9
$UCSORG
 10
0.0
 20
0.0
 30
0.0
  9
$UCSXDIR
 10
1.0
 20
0.0
 30
0.0
  9
$UCSYDIR
 10
0.0
 20
1.0
 30
0.0
  9
$UCSORTHOREF
  2

  9
$UCSORTHOVIEW
 70
     0
  9
$UCSORGTOP
 10
0.0
 20
0.0
 30
0.0
  9
$UCSORGBOTTOM
 10
0.0
 20
0.0
 30
0.0
  9
$UCSORGLEFT
 10
0.0
 20
0.0
 30
0.0
  9
$UCSORGRIGHT
 10
0.0
 20
0.0
 30
0.0
  9
$UCSORGFRONT
 10
0.0
 20
0.0
 30
0.0
  9
$UCSORGBACK
 10
0.0
 20
0.0
 30
0.0
  9
$PUCSBASE
  2

  9
$PUCSNAME
  2

  9
$PUCSORG
 10
0.0
 20
0.0
 30
0.0
  9
$PUCSXDIR
 10
1.0
 20
0.0
 30
0.0
  9
$PUCSYDIR
 10
0.0
 20
1.0
 30
0.0
  9
$PUCSORTHOREF
  2

  9
$PUCSORTHOVIEW
 70
     0
  9
$PUCSORGTOP
 10
0.0
 20
0.0
 30
0.0
  9
$PUCSORGBOTTOM
 10
0.0
 20
0.0
 30
0.0
  9
$PUCSORGLEFT
 10
0.0
 20
0.0
 30
0.0
  9
$PUCSORGRIGHT
 10
0.0
 20
0.0
 30
0.0
  9
$PUCSORGFRONT
 10
0.0
 20
0.0
 30
0.0
  9
$PUCSORGBACK
 10
0.0
 20
0.0
 30
0.0
  9
$USERI1
 70
     0
  9
$USERI2
 70
     0
  9
$USERI3
 70
     0
  9
$USERI4
 70
     0
  9
$USERI5
 70
     0
  9
$USERR1
 40
0.0
  9
$USERR2
 40
0.0
  9
$USERR3
 40
0.0
  9
$USERR4
 40
0.0
  9
$USERR5
 40
0.0
  9
$WORLDVIEW
 70
     1
  9
$SHADEDGE
 70
     3
  9
$SHADEDIF
 70
    70
  9
$TILEMODE
 70
     1
  9
$MAXACTVP
 70
    64
  9
$PINSBASE
 10
0.0
 20
0.0
 30
0.0
  9
$PLIMCHECK
 70
     0
  9
$PEXTMIN
 10
1.0000000000E+20
 20
1.0000000000E+20
 30
1.0000000000E+20
  9
$PEXTMAX
 10
-1.0000000000E+20
 20
-1.0000000000E+20
 30
-1.0000000000E+20
  9
$PLIMMIN
 10
0.0
 20
0.0
  9
$PLIMMAX
 10
12.0
 20
9.0
  9
$UNITMODE
 70
     0
  9
$VISRETAIN
 70
     1
  9
$PLINEGEN
 70
     0
  9
$PSLTSCALE
 70
     1
  9
$TREEDEPTH
 70
  3020
  9
$CMLSTYLE
  2
Standard
  9
$CMLJUST
 70
     0
  9
$CMLSCALE
 40
1.0
  9
$PROXYGRAPHICS
 70
     1
  9
$MEASUREMENT
 70
     0
  9
$CELWEIGHT
370
    -1
  9
$ENDCAPS
280
     0
  9
$JOINSTYLE
280
     0
  9
$LWDISPLAY
290
     1
  9
$INSUNITS
 70
     1
  9
$HYPERLINKBASE
  1

  9
$STYLESHEET
  1

  9
$XEDIT
290
     1
  9
$CEPSNTYPE
380
     0
  9
$PSTYLEMODE
290
     1
  9
$FINGERPRINTGUID
  2
{AF75665E-2717-428D-AB99-62809BEC5BAA}
  9
$VERSIONGUID
  2
{FAEB1C32-E019-11D5-929B-00C0DF256EC4}
  9
$EXTNAMES
290
     1
  9
$PSVPSCALE
 40
0.0
  9
$OLESTARTUP
290
     0
  0
ENDSEC
  0
SECTION
  2
CLASSES
  0
CLASS
  1
ACDBDICTIONARYWDFLT
  2
AcDbDictionaryWithDefault
  3
ObjectDBX Classes
 90
        0
280
     0
281
     0
  0
CLASS
  1
VISUALSTYLE
  2
AcDbVisualStyle
  3
ObjectDBX Classes
 90
     4095
280
     0
281
     0
  0
CLASS
  1
MATERIAL
  2
AcDbMaterial
  3
ObjectDBX Classes
 90
     1153
280
     0
281
     0
  0
CLASS
  1
ACDBPLACEHOLDER
  2
AcDbPlaceHolder
  3
ObjectDBX Classes
 90
        0
280
     0
281
     0
  0
CLASS
  1
LAYOUT
  2
AcDbLayout
  3
ObjectDBX Classes
 90
        0
280
     0
281
     0
  0
ENDSEC
  0
SECTION
  2
TABLES
  0
TABLE
  2
VPORT
  5
8
330
0
100
AcDbSymbolTable
 70
     1
  0
VPORT
  5
29
330
8
100
AcDbSymbolTableRecord
100
AcDbViewportTableRecord
  2
*Active
 70
     0
 10
0.0
 20
0.0
 11
1.0
 21
1.0
 12
50.0
 22
50.0
 13
0.0
 23
0.0
 14
0.5
 24
0.5
 15
0.5
 25
0.5
 16
0.0
 26
0.0
 36
1.0
 17
0.0
 27
0.0
 37
0.0
 40
100.0
 41
1.0
 42
50.0
 43
0.0
 44
0.0
 50
0.0
 51
0.0
 71
     0
 72
  2000
 73
     1
 74
     3
 75
     0
 76
     0
 77
     0
 78
     0
281
     0
 65
     1
110
0.0
120
0.0
130
0.0
111
1.0
121
0.0
131
0.0
112
0.0
122
1.0
132
0.0
 79
     0
146
0.0
  0
ENDTAB
  0
TABLE
  2
LTYPE
  5
5
330
0
100
AcDbSymbolTable
 70
     6
  0
LTYPE
  5
14
330
5
100
AcDbSymbolTableRecord
100
AcDbLinetypeTableRecord
  2
ByBlock
 70
     0
  3

 72
    65
 73
     0
 40
0.0
  0
LTYPE
  5
15
330
5
100
AcDbSymbolTableRecord
100
AcDbLinetypeTableRecord
  2
ByLayer
 70
     0
  3

 72
    65
 73
     0
 40
0.0
  0
LTYPE
  5
16
330
5
100
AcDbSymbolTableRecord
100
AcDbLinetypeTableRecord
  2
Continuous
 70
     0
  3
Solid line
 72
    65
 73
     0
 40
0.0
  0
LTYPE
  5
3F
330
5
100
AcDbSymbolTableRecord
100
AcDbLinetypeTableRecord
  2
HIDDEN
 70
     0
  3
Hidden __ __ __ __ __ __ __ __ __ __ __ __ __ __
 72
    65
 73
     2
 40
0.075
 49
0.05
 74
     0
 49
-0.025
 74
     0
  0
LTYPE
  5
40
330
5
100
AcDbSymbolTableRecord
100
AcDbLinetypeTableRecord
  2
PHANTOM
 70
     0
  3
Phantom ______  __  __  ______  __  __  ______
 72
    65
 73
     6
 40
0.5
 49
0.25
 74
     0
 49
-0.05
 74
     0
 49
0.05
 74
     0
 49
-0.05
 74
     0
 49
0.05
 74
     0
 49
-0.05
 74
     0
  0
LTYPE
  5
41
330
5
100
AcDbSymbolTableRecord
100
AcDbLinetypeTableRecord
  2
CENTER
 70
     0
  3
Center ____ _ ____ _ ____ _ ____ _ ____ _ ____
 72
    65
 73
     4
 40
0.4
 49
0.25
 74
     0
 49
-0.05
 74
     0
 49
0.05
 74
     0
 49
-0.05
 74
     0
  0
LTYPE
  5
42
330
5
100
AcDbSymbolTableRecord
100
AcDbLinetypeTableRecord
  2
CENTERX2
 70
     0
  3
Center (2x) ________  __  ________  __  _____
 72
    65
 73
     4
 40
0.8
 49
0.5
 74
     0
 49
-0.1
 74
     0
 49
0.1
 74
     0
 49
-0.1
 74
     0
  0
LTYPE
  5
43
330
5
100
AcDbSymbolTableRecord
100
AcDbLinetypeTableRecord
  2
DOT2
 70
     0
  3
Dot (.5x) ........................................
 72
    65
 73
     2
 40
0.025
 49
0.0
 74
     0
 49
-0.025
 74
     0
  0
ENDTAB
  0
TABLE
  2
LAYER
  5
2
330
0
100
AcDbSymbolTable
 70
     3
  0
LAYER
  5
10
330
2
100
AcDbSymbolTableRecord
100
AcDbLayerTableRecord
  2
0
 70
     0
 62
     7
  6
Continuous
370
    -3
390
F
  0
LAYER
  5
44
330
2
100
AcDbSymbolTableRecord
100
AcDbLayerTableRecord
  2
SLD-0
 70
     0
 62
    -7
  6
Continuous
370
    -3
390
F
  0
LAYER
  5
45
330
2
100
AcDbSymbolTableRecord
100
AcDbLayerTableRecord
  2
FORMAT
 70
     0
 62
     7
  6
Continuous
370
    -3
390
F
  0
ENDTAB
  0
TABLE
  2
STYLE
  5
3
330
0
100
AcDbSymbolTable
 70
     1
  0
STYLE
  5
11
330
3
100
AcDbSymbolTableRecord
100
AcDbTextStyleTableRecord
  2
Standard
 70
     0
 40
0.0
 41
1.0
 50
0.0
 71
     0
 42
0.1666666667
  3
txt
  4

  0
ENDTAB
  0
TABLE
  2
VIEW
  5
6
330
0
100
AcDbSymbolTable
 70
     0
  0
ENDTAB
  0
TABLE
  2
UCS
  5
7
330
0
100
AcDbSymbolTable
 70
     0
  0
ENDTAB
  0
TABLE
  2
APPID
  5
9
330
0
100
AcDbSymbolTable
 70
     1
  0
APPID
  5
12
330
9
100
AcDbSymbolTableRecord
100
AcDbRegAppTableRecord
  2
ACAD
 70
     0
  0
ENDTAB
  0
TABLE
  2
DIMSTYLE
  5
A
330
0
100
AcDbSymbolTable
 70
     1
100
AcDbDimStyleTable
  0
DIMSTYLE
105
27
330
A
100
AcDbSymbolTableRecord
100
AcDbDimStyleTableRecord
  2
Standard
 70
     0
178
     0
340
11
  0
ENDTAB
  0
TABLE
  2
BLOCK_RECORD
  5
1
330
0
100
AcDbSymbolTable
 70
     1
  0
BLOCK_RECORD
  5
1F
330
1
100
AcDbSymbolTableRecord
100
AcDbBlockTableRecord
  2
*Model_Space
340
22
  0
BLOCK_RECORD
  5
1B
330
1
100
AcDbSymbolTableRecord
100
AcDbBlockTableRecord
  2
*Paper_Space
340
1E
  0
BLOCK_RECORD
  5
23
330
1
100
AcDbSymbolTableRecord
100
AcDbBlockTableRecord
  2
*Paper_Space0
340
26
  0
ENDTAB
  0
ENDSEC
  0
SECTION
  2
BLOCKS
  0
BLOCK
  5
20
330
1F
100
AcDbEntity
  8
0
100
AcDbBlockBegin
  2
*Model_Space
 70
     0
 10
0.0
 20
0.0
 30
0.0
  3
*Model_Space
  1

  0
ENDBLK
  5
21
330
1F
100
AcDbEntity
  8
0
100
AcDbBlockEnd
  0
BLOCK
  5
1C
330
1B
100
AcDbEntity
 67
     1
  8
0
100
AcDbBlockBegin
  2
*Paper_Space
 70
     0
 10
0.0
 20
0.0
 30
0.0
  3
*Paper_Space
  1

  0
ENDBLK
  5
1D
330
1B
100
AcDbEntity
 67
     1
  8
0
100
AcDbBlockEnd
  0
BLOCK
  5
24
330
23
100
AcDbEntity
  8
0
100
AcDbBlockBegin
  2
*Paper_Space0
 70
     0
 10
0.0
 20
0.0
 30
0.0
  3
*Paper_Space0
  1

  0
ENDBLK
  5
25
330
23
100
AcDbEntity
  8
0
100
AcDbBlockEnd
  0
ENDSEC
  0
SECTION
  2
ENTITIES
  0
LINE
  5
46
330
1F
100
AcDbEntity
  8
0
  6
Continuous
 62
     7
370
     0
100
AcDbLine
 10
51.1742468198
 20
41.2929711218
 30
0.0
 11
51.1742468198
 21
41.0087461402
 31
0.0
  0
LINE
  5
47
330
1F
100
AcDbEntity
  8
0
  6
Continuous
 62
     7
370
     0
100
AcDbLine
 10
58.1741291128
 20
46.9177409538
 30
0.0
 11
54.3180708001
 21
44.6916858728
 31
0.0
  0
LINE
  5
48
330
1F
100
AcDbEntity
  8
0
  6
Continuous
 62
     7
370
     0
100
AcDbLine
 10
53.5821071775
 20
44.266823117
 30
0.0
 11
47.9541090686
 21
41.017848965
 31
0.0
  0
LINE
  5
49
330
1F
100
AcDbEntity
  8
0
  6
Continuous
 62
     7
370
     0
100
AcDbLine
 10
47.2181520833
 20
40.5929900408
 30
0.0
 11
42.5883373676
 21
37.9202548962
 31
0.0
  0
LINE
  5
4A
330
1F
100
AcDbEntity
  8
0
  6
Continuous
 62
     7
370
     0
100
AcDbLine
 10
42.4410092422
 20
37.8352041797
 30
0.0
 11
42.4113936141
 21
37.8181074416
 31
0.0
  0
LINE
  5
4B
330
1F
100
AcDbEntity
  8
0
  6
Continuous
 62
     7
370
     0
100
AcDbLine
 10
42.5543819961
 20
37.5704174891
 30
0.0
 11
42.7270314171
 21
37.6700858784
 31
0.0
  0
LINE
  5
4C
330
1F
100
AcDbEntity
  8
0
  6
Continuous
 62
     7
370
     0
100
AcDbLine
 10
42.8743595425
 20
37.7551365948
 30
0.0
 11
47.4434960709
 21
40.3928429675
 31
0.0
  0
LINE
  5
4D
330
1F
100
AcDbEntity
  8
0
  6
Continuous
 62
     7
370
     0
100
AcDbLine
 10
48.1794596935
 20
40.8177057234
 30
0.0
 11
53.8074578025
 21
44.0666798753
 31
0.0
  0
LINE
  5
4E
330
1F
100
AcDbEntity
  8
0
  6
Continuous
 62
     7
370
     0
100
AcDbLine
 10
54.5434147878
 20
44.4915387996
 30
0.0
 11
58.460157925
 21
46.7526264841
 31
0.0
  0
LINE
  5
4F
330
1F
100
AcDbEntity
  8
0
  6
Continuous
 62
     7
370
     0
100
AcDbLine
 10
56.8737597512
 20
47.6684282075
 30
0.0
 11
53.6024939395
 21
45.7799666515
 31
0.0
  0
LINE
  5
50
330
1F
100
AcDbEntity
  8
0
  6
Continuous
 62
     7
370
     0
100
AcDbLine
 10
52.3216943557
 20
45.0405767901
 30
0.0
 11
47.2385322079
 21
42.1061297437
 31
0.0
  0
LINE
  5
51
330
1F
100
AcDbEntity
  8
0
  6
Continuous
 62
     7
370
     0
100
AcDbLine
 10
45.9577326241
 20
41.3667398823
 30
0.0
 11
41.2879680059
 21
38.6709421499
 31
0.0
  0
LINE
  5
52
330
1F
100
AcDbEntity
  8
0
  6
Continuous
 62
     7
370
     0
100
AcDbLine
 10
41.1406398805
 20
38.5858914334
 30
0.0
 11
41.1110242525
 21
38.5687946953
 31
0.0
  0
LINE
  5
53
330
1F
100
AcDbEntity
  8
0
  6
Continuous
 62
     7
370
     0
100
AcDbLine
 10
41.2540126214
 20
38.3211047503
 30
0.0
 11
41.3036065194
 21
38.3497346982
 31
0.0
  0
LINE
  5
54
330
1F
100
AcDbEntity
  8
0
  6
Continuous
 62
     7
370
     0
100
AcDbLine
 10
43.4540414011
 20
36.6690793298
 30
0.0
 11
43.4604596692
 21
36.6727845171
 31
0.0
  0
LINE
  5
55
330
1F
100
AcDbEntity
  8
0
  6
Continuous
 62
     7
370
     0
100
AcDbLine
 10
41.1206651366
 20
38.3882739064
 30
0.0
 11
41.0931269832
 21
38.3723764688
 31
0.0
  0
LINE
  5
56
330
1F
100
AcDbEntity
  8
0
  6
Continuous
 62
     7
370
     0
100
AcDbLine
 10
41.1580655904
 20
37.9945179526
 30
0.0
 11
41.1697870604
 21
38.0012846132
 31
0.0
  0
LINE
  5
57
330
1F
100
AcDbEntity
  8
0
  6
Continuous
 62
     7
370
     0
100
AcDbLine
 10
43.395521062
 20
37.6393689675
 30
0.0
 11
43.3891027939
 21
37.6356637802
 31
0.0
  0
LINE
  5
58
330
1F
100
AcDbEntity
  8
0
  6
Continuous
 62
     7
370
     0
100
AcDbLine
 10
43.4540414011
 20
37.2578052396
 30
0.0
 11
43.4604596692
 21
37.261510427
 31
0.0
  0
LINE
  5
59
330
1F
100
AcDbEntity
  8
0
  6
Continuous
 62
     7
370
     0
100
AcDbLine
 10
41.0995452513
 20
38.9648075903
 30
0.0
 11
41.0931269832
 21
38.961102403
 31
0.0
  0
LINE
  5
5A
330
1F
100
AcDbEntity
  8
0
  6
Continuous
 62
     7
370
     0
100
AcDbLine
 10
43.5895846911
 20
37.4754024388
 30
0.0
 11
47.8614896967
 21
39.9415207057
 31
0.0
  0
LINE
  5
5B
330
1F
100
AcDbEntity
  8
0
  6
Continuous
 62
     7
370
     0
100
AcDbLine
 10
48.6039578723
 20
40.3701384601
 30
0.0
 11
54.2254514282
 21
43.6153576136
 31
0.0
  0
LINE
  5
5C
330
1F
100
AcDbEntity
  8
0
  6
Continuous
 62
     7
370
     0
100
AcDbLine
 10
54.9679129665
 20
44.0439715363
 30
0.0
 11
60.5601426713
 21
47.2722970281
 31
0.0
  0
LINE
  5
5D
330
1F
100
AcDbEntity
  8
0
  6
Continuous
 62
     7
370
     0
100
AcDbLine
 10
60.3018991612
 20
47.5203547655
 30
0.0
 11
54.7450528973
 21
44.3124556994
 31
0.0
  0
LINE
  5
5E
330
1F
100
AcDbEntity
  8
0
  6
Continuous
 62
     7
370
     0
100
AcDbLine
 10
54.009095912
 20
43.8875967752
 30
0.0
 11
48.3810911657
 21
40.6386187916
 31
0.0
  0
LINE
  5
5F
330
1F
100
AcDbEntity
  8
0
  6
Continuous
 62
     7
370
     0
100
AcDbLine
 10
47.6451341804
 20
40.2137598673
 30
0.0
 11
43.331341181
 21
37.7234601763
 31
0.0
  0
LINE
  5
60
330
1F
100
AcDbEntity
  8
0
  6
Continuous
 62
     7
370
     0
100
AcDbLine
 10
43.3689674066
 20
37.5562192573
 30
0.0
 11
43.3826800663
 21
37.5641354073
 31
0.0
  0
LINE
  5
61
330
1F
100
AcDbEntity
  8
0
  6
Continuous
 62
     7
370
     0
100
AcDbLine
 10
60.5225164457
 20
46.8875563691
 30
0.0
 11
43.5519584654
 21
37.0906617799
 31
0.0
  0
LINE
  5
62
330
1F
100
AcDbEntity
  8
0
  6
Continuous
 62
     7
370
     0
100
AcDbLine
 10
43.5895846911
 20
36.9144388735
 30
0.0
 11
60.5601426713
 21
46.7113334628
 31
0.0
  0
LINE
  5
63
330
1F
100
AcDbEntity
  8
0
  6
Continuous
 62
     7
370
     0
100
AcDbLine
 10
43.9438451312
 20
36.0028043511
 30
0.0
 11
51.8160932318
 21
40.5473564461
 31
0.0
  0
LINE
  5
64
330
1F
100
AcDbEntity
  8
0
  6
Continuous
 62
     7
370
     0
100
AcDbLine
 10
52.2779032201
 20
40.8139536776
 30
0.0
 11
60.9144031115
 21
45.7996989404
 31
0.0
  0
LINE
  5
65
330
1F
100
AcDbEntity
  8
0
  6
Continuous
 62
     7
370
     0
100
AcDbLine
 10
60.5225164457
 20
46.3265927739
 30
0.0
 11
51.6256087662
 21
41.1905172949
 31
0.0
  0
LINE
  5
66
330
1F
100
AcDbEntity
  8
0
  6
Continuous
 62
     7
370
     0
100
AcDbLine
 10
51.2302779644
 20
40.9622976809
 30
0.0
 11
43.5519584654
 21
36.5296981846
 31
0.0
  0
LINE
  5
67
330
1F
100
AcDbEntity
  8
0
  6
Continuous
 62
     7
370
     0
100
AcDbLine
 10
43.5895846911
 20
36.4090000871
 30
0.0
 11
51.3047411994
 21
40.8628651362
 31
0.0
  0
LINE
  5
68
330
1F
100
AcDbEntity
  8
0
  6
Continuous
 62
     7
370
     0
100
AcDbLine
 10
51.7489623454
 20
41.1193085452
 30
0.0
 11
60.5601426713
 21
46.2058946763
 31
0.0
  0
LINE
  5
69
330
1F
100
AcDbEntity
  8
0
  6
Continuous
 62
     7
370
     0
100
AcDbLine
 10
43.3826806886
 20
36.8859315071
 30
0.0
 11
43.331341181
 21
36.8562938402
 31
0.0
  0
LINE
  5
6A
330
1F
100
AcDbEntity
  8
0
  6
Continuous
 62
     7
370
     0
100
AcDbLine
 10
60.4800901046
 20
46.1453167745
 30
0.0
 11
51.76140054
 21
41.1121244233
 31
0.0
  0
LINE
  5
6B
330
1F
100
AcDbEntity
  8
0
  6
Continuous
 62
     7
370
     0
100
AcDbLine
 10
51.3047410957
 20
40.8485005375
 30
0.0
 11
43.5095321244
 21
36.3484221852
 31
0.0
  0
LINE
  5
6C
330
1F
100
AcDbEntity
  8
0
  6
Continuous
 62
     7
370
     0
100
AcDbLine
 10
43.4604599285
 20
37.0866922441
 30
0.0
 11
43.4556943478
 21
37.0839411329
 31
0.0
  0
LINE
  5
6D
330
1F
100
AcDbEntity
  8
0
  6
Continuous
 62
     7
370
     0
100
AcDbLine
 10
43.3083662224
 20
36.9988904165
 30
0.0
 11
42.8010110885
 21
36.706000532
 31
0.0
  0
LINE
  5
6E
330
1F
100
AcDbEntity
  8
0
  6
Continuous
 62
     7
370
     0
100
AcDbLine
 10
41.2105238977
 20
38.8022621722
 30
0.0
 11
45.7490956644
 21
41.4223238835
 31
0.0
  0
LINE
  5
6F
330
1F
100
AcDbEntity
  8
0
  6
Continuous
 62
     7
370
     0
100
AcDbLine
 10
47.2243614709
 20
42.2739767057
 30
0.0
 11
52.1130573959
 21
45.0961607914
 31
0.0
  0
LINE
  5
70
330
1F
100
AcDbEntity
  8
0
  6
Continuous
 62
     7
370
     0
100
AcDbLine
 10
53.5883232025
 20
45.9478136135
 30
0.0
 11
58.181081878
 21
48.5991567615
 31
0.0
  0
LINE
  5
71
330
1F
100
AcDbEntity
  8
0
  6
Continuous
 62
     7
370
     0
100
AcDbLine
 10
57.9228383679
 20
48.8937573278
 30
0.0
 11
52.3444076076
 21
45.6733977972
 31
0.0
  0
LINE
  5
72
330
1F
100
AcDbEntity
  8
0
  6
Continuous
 62
     7
370
     0
100
AcDbLine
 10
51.5871913537
 20
45.2362661585
 30
0.0
 11
45.9804458761
 21
41.9995608894
 31
0.0
  0
LINE
  5
73
330
1F
100
AcDbEntity
  8
0
  6
Continuous
 62
     7
370
     0
100
AcDbLine
 10
45.2232296222
 20
41.5624292506
 30
0.0
 11
40.9522803876
 21
39.0968627386
 31
0.0
  0
LINE
  5
74
330
1F
100
AcDbEntity
  8
0
  6
Continuous
 62
     7
370
     0
100
AcDbLine
 10
40.9899066133
 20
38.9761646485
 30
0.0
 11
41.0329959583
 21
39.0010395979
 31
0.0
  0
LINE
  5
75
330
1F
100
AcDbEntity
  8
0
  6
Continuous
 62
     7
370
     0
100
AcDbLine
 10
41.7408539902
 20
37.2745640667
 30
0.0
 11
42.2858426093
 21
37.5891792997
 31
0.0
  0
LINE
  5
76
330
1F
100
AcDbEntity
  8
0
  6
Continuous
 62
     7
370
     0
100
AcDbLine
 10
41.0375564049
 20
38.6406527865
 30
0.0
 11
40.9522803876
 21
38.5914239896
 31
0.0
  0
LINE
  5
77
330
1F
100
AcDbEntity
  8
0
  6
Continuous
 62
     7
370
     0
100
AcDbLine
 10
41.452527078
 20
38.2637633751
 30
0.0
 11
41.4322434923
 21
38.2520539103
 31
0.0
  0
LINE
  5
78
330
1F
100
AcDbEntity
  8
0
  6
Continuous
 62
     7
370
     0
100
AcDbLine
 10
41.2849153669
 20
38.1670031939
 30
0.0
 11
41.1728976721
 21
38.1023367551
 31
0.0
  0
LINE
  5
79
330
1F
100
AcDbEntity
  8
0
  6
Continuous
 62
     7
370
     0
100
AcDbLine
 10
40.9899066133
 20
38.4152010832
 30
0.0
 11
41.0329959583
 21
38.4400760326
 31
0.0
  0
LINE
  5
7A
330
1F
100
AcDbEntity
  8
0
  6
Continuous
 62
     7
370
     0
100
AcDbLine
 10
41.0375564049
 20
38.0796891912
 30
0.0
 11
40.9522803876
 21
38.0304603943
 31
0.0
  0
LINE
  5
7B
330
1F
100
AcDbEntity
  8
0
  6
Continuous
 62
     7
370
     0
100
AcDbLine
 10
41.0840913377
 20
37.851800501
 30
0.0
 11
40.9947068324
 21
37.8001999244
 31
0.0
  0
LINE
  5
7C
330
1F
100
AcDbEntity
  8
0
  6
Continuous
 62
     7
370
     0
100
AcDbLine
 10
41.0375617977
 20
38.2315023566
 30
0.0
 11
40.5980199475
 21
37.9777602476
 31
0.0
  0
LINE
  5
7D
330
1F
100
AcDbEntity
  8
0
  6
Continuous
 62
     7
370
     0
100
AcDbLine
 10
53.2932255713
 20
40.1918961732
 30
0.0
 11
53.2932255713
 21
39.6946227822
 31
0.0
  0
LINE
  5
7E
330
1F
100
AcDbEntity
  8
0
  6
Continuous
 62
     7
370
     0
100
AcDbLine
 10
53.3243412289
 20
40.20985886
 30
0.0
 11
53.2932255713
 21
40.1918961732
 31
0.0
  0
LINE
  5
7F
330
1F
100
AcDbEntity
  8
0
  6
Continuous
 62
     7
370
     0
100
AcDbLine
 10
53.3243412289
 20
40.20985886
 30
0.0
 11
53.3243412289
 21
39.712585469
 31
0.0
  0
LINE
  5
80
330
1F
100
AcDbEntity
  8
0
  6
Continuous
 62
     7
370
     0
100
AcDbLine
 10
53.3243412289
 20
39.712585469
 30
0.0
 11
53.2932255713
 21
39.6946227822
 31
0.0
  0
LINE
  5
81
330
1F
100
AcDbEntity
  8
0
  6
Continuous
 62
     7
370
     0
100
AcDbLine
 10
51.3047389179
 20
41.3398250838
 30
0.0
 11
53.2932255713
 21
40.1918961732
 31
0.0
  0
LINE
  5
82
330
1F
100
AcDbEntity
  8
0
  6
Continuous
 62
     7
370
     0
100
AcDbLine
 10
51.3358545755
 20
41.3577877706
 30
0.0
 11
51.3047389179
 21
41.3398250838
 31
0.0
  0
LINE
  5
83
330
1F
100
AcDbEntity
  8
0
  6
Continuous
 62
     7
370
     0
100
AcDbLine
 10
51.3358545755
 20
41.3577877706
 30
0.0
 11
53.3243412289
 21
40.20985886
 31
0.0
  0
LWPOLYLINE
  5
84
330
1F
100
AcDbEntity
  8
0
  6
Continuous
 62
     7
370
     0
100
AcDbPolyline
 90
       17
 70
   128
 43
0.0
 10
52.9396722109
 20
40.2304445141
 10
52.9650407972
 20
40.209972479
 10
52.9865473053
 20
40.1809629575
 10
53.0009174724
 20
40.1478323748
 10
53.0059634789
 20
40.1156246701
 10
53.0009174724
 20
40.0892430204
 10
52.9865473053
 20
40.0727038795
 10
52.9650407972
 20
40.0685252436
 10
52.9396722109
 20
40.0773431549
 10
52.9143036245
 20
40.0978151899
 10
52.8927973239
 20
40.1268245917
 10
52.8784271568
 20
40.1599551744
 10
52.8733809428
 20
40.192162939
 10
52.8784271568
 20
40.2185445289
 10
52.8927973239
 20
40.2350836697
 10
52.9143036245
 20
40.2392624254
 10
52.9396722109
 20
40.2304445141
  0
LINE
  5
85
330
1F
100
AcDbEntity
  8
0
  6
Continuous
 62
     7
370
     0
100
AcDbLine
 10
51.3047389179
 20
40.8425516928
 30
0.0
 11
53.2932255713
 21
39.6946227822
 31
0.0
  0
LINE
  5
86
330
1F
100
AcDbEntity
  8
0
  6
Continuous
 62
     7
370
     0
100
AcDbLine
 10
51.3047389179
 20
40.9193065897
 30
0.0
 11
51.3047389179
 21
40.8425516928
 31
0.0
  0
LINE
  5
87
330
1F
100
AcDbEntity
  8
0
  6
Continuous
 62
     7
370
     0
100
AcDbLine
 10
51.1915275463
 20
40.9846621233
 30
0.0
 11
51.3047389179
 21
40.9193065897
 31
0.0
  0
LINE
  5
88
330
1F
100
AcDbEntity
  8
0
  6
Continuous
 62
     7
370
     0
100
AcDbLine
 10
51.3047389179
 20
41.2630702469
 30
0.0
 11
51.2135951135
 21
41.3156864452
 31
0.0
  0
LINE
  5
89
330
1F
100
AcDbEntity
  8
0
  6
Continuous
 62
     7
370
     0
100
AcDbLine
 10
51.3047389179
 20
41.3398250838
 30
0.0
 11
51.3047389179
 21
41.2630702469
 31
0.0
  0
LWPOLYLINE
  5
8A
330
1F
100
AcDbEntity
  8
0
  6
Continuous
 62
     7
370
     0
100
AcDbPolyline
 90
       17
 70
   128
 43
0.0
 10
51.6692523256
 20
40.9575141141
 10
51.6946885294
 20
40.9369875356
 10
51.7162524916
 20
40.9079005361
 10
51.7306608232
 20
40.8746817553
 10
51.7357205191
 20
40.8423880058
 10
51.7306608232
 20
40.8159361167
 10
51.7162524916
 20
40.7993527816
 10
51.6946885294
 20
40.7951630627
 10
51.6692523256
 20
40.8040044402
 10
51.6438162255
 20
40.8245310187
 10
51.622252367
 20
40.8536178984
 10
51.6078439318
 20
40.886836799
 10
51.6027843395
 20
40.9191304288
 10
51.6078439318
 20
40.9455824376
 10
51.622252367
 20
40.962165653
 10
51.6438162255
 20
40.9663554916
 10
51.6692523256
 20
40.9575141141
  0
ARC
  5
8B
330
1F
100
AcDbEntity
  8
0
  6
Continuous
 62
     7
370
     0
100
AcDbCircle
 10
53.0240609501
 20
40.2026103457
 30
0.0
 40
0.1189013579830466
100
AcDbArc
 50
161.9419939049
 51
258.0526721298
  0
ARC
  5
8C
330
1F
100
AcDbEntity
  8
0
  6
Continuous
 62
     7
370
     0
100
AcDbCircle
 10
51.7537413647
 20
40.9295337308
 30
0.0
 40
0.1191758348099237
100
AcDbArc
 50
161.8982733822
 51
258.0963312249
  0
LINE
  5
8D
330
1F
100
AcDbEntity
  8
0
  6
Continuous
 62
     7
370
     0
100
AcDbLine
 10
51.3047418217
 20
41.2989939441
 30
0.0
 11
51.2447107711
 21
41.333649132
 31
0.0
  0
LWPOLYLINE
  5
8E
330
1F
100
AcDbEntity
  8
0
  6
Continuous
 62
     7
370
     0
100
AcDbPolyline
 90
       17
 70
   128
 43
0.0
 10
52.9707880759
 20
42.2790183209
 10
52.9454203192
 20
42.2585467648
 10
52.9239088332
 20
42.2295343695
 10
52.9095390809
 20
42.1964040263
 10
52.9044947337
 20
42.1641972795
 10
52.9095390809
 20
42.1378146719
 10
52.9239088332
 20
42.1212752915
 10
52.9454203192
 20
42.1170995293
 10
52.9707880759
 20
42.1259169617
 10
52.9961558326
 20
42.1463885178
 10
53.0176606813
 20
42.1753970814
 10
53.0320304336
 20
42.2085274246
 10
53.0370814181
 20
42.2407379432
 10
53.0320304336
 20
42.2671167791
 10
53.0176606813
 20
42.2836561594
 10
52.9961558326
 20
42.2878357532
 10
52.9707880759
 20
42.2790183209
  0
LINE
  5
8F
330
1F
100
AcDbEntity
  8
0
  6
Continuous
 62
     7
370
     0
100
AcDbLine
 10
53.3243437179
 20
42.5341956536
 30
0.0
 11
53.3243437179
 21
42.1711761179
 31
0.0
  0
LWPOLYLINE
  5
90
330
1F
100
AcDbEntity
  8
0
  6
Continuous
 62
     7
370
     0
100
AcDbPolyline
 90
       17
 70
   128
 43
0.0
 10
51.7003692277
 20
41.5392929417
 10
51.6749284607
 20
41.518763729
 10
51.6533705136
 20
41.4896802019
 10
51.6389609376
 20
41.4564607026
 10
51.6338966784
 20
41.4241643188
 10
51.6389609376
 20
41.397715064
 10
51.6533705136
 20
41.3811324473
 10
51.6749284607
 20
41.376939256
 10
51.7003692277
 20
41.3857832678
 10
51.7258033574
 20
41.4063087087
 10
51.7473679418
 20
41.4353960076
 10
51.7617775179
 20
41.4686155667
 10
51.7668351397
 20
41.500908059
 10
51.7617775179
 20
41.5273612053
 10
51.7473679418
 20
41.5439437621
 10
51.7258033574
 20
41.5481331817
 10
51.7003692277
 20
41.5392929417
  0
ARC
  5
91
330
1F
100
AcDbEntity
  8
0
  6
Continuous
 62
     7
370
     0
100
AcDbCircle
 10
51.2037999621
 20
41.0117094366
 30
0.0
 40
0.0297013357550145
100
AcDbArc
 50
185.7259147687
 51
245.5943599929
  0
ARC
  5
92
330
1F
100
AcDbEntity
  8
0
  6
Continuous
 62
     7
370
     0
100
AcDbCircle
 10
51.616049345
 20
41.5115457997
 30
0.0
 40
0.1191483885781596
100
AcDbArc
 50
281.2476123716
 51
17.479776431
  0
ARC
  5
93
330
1F
100
AcDbEntity
  8
0
  6
Continuous
 62
     7
370
     0
100
AcDbCircle
 10
52.8864093369
 20
42.2511757847
 30
0.0
 40
0.1188937195168999
100
AcDbArc
 50
281.9442536571
 51
18.0617786555
  0
LWPOLYLINE
  5
94
330
1F
100
AcDbEntity
  8
0
  6
Continuous
 62
     7
370
     0
100
AcDbPolyline
 90
       19
 70
   128
 43
0.0
 10
41.2812301104
 20
38.3626519009
 10
41.2690745195
 20
38.3346180922
 10
41.2478683493
 20
38.3181208239
 10
41.2198290798
 20
38.314885028
 10
41.1878886341
 20
38.3252489964
 10
41.1553866106
 20
38.3481291732
 10
41.125721514
 20
38.381133054
 10
41.1019952443
 20
38.4208097454
 10
41.0866885958
 20
38.4630105865
 10
41.0814021945
 20
38.503322887
 10
41.0866885958
 20
38.5375316086
 10
41.1019952443
 20
38.5620597695
 10
41.125721514
 20
38.5743426931
 10
41.1553866106
 20
38.5730960122
 10
41.1878886341
 20
38.5584501216
 10
41.2198290798
 20
38.5319364363
 10
41.2478683493
 20
38.4963271889
 10
41.2690745195
 20
38.4553457976
 10
41.2812301104
 20
38.4132774425
  0
LINE
  5
95
330
1F
100
AcDbEntity
  8
0
  6
Continuous
 62
     7
370
     0
100
AcDbLine
 10
41.2812301104
 20
38.4132774425
 30
0.0
 11
42.3841760993
 21
37.776560276
 31
0.0
  0
LWPOLYLINE
  5
96
330
1F
100
AcDbEntity
  8
0
  6
Continuous
 62
     7
370
     0
100
AcDbPolyline
 90
       19
 70
   128
 43
0.0
 10
42.3841760993
 20
37.776560276
 10
42.3963317419
 20
37.8045940548
 10
42.4175378603
 20
37.821091353
 10
42.4455771039
 20
37.8243271638
 10
42.4775176145
 20
37.813963158
 10
42.5100196638
 20
37.7910829962
 10
42.5396847346
 20
37.7580791005
 10
42.5634110042
 20
37.718402409
 10
42.5787176009
 20
37.6762015979
 10
42.5840040799
 20
37.6358892824
 10
42.5787176009
 20
37.6016805758
 10
42.5634110042
 20
37.5771523849
 10
42.5396847346
 20
37.5648694614
 10
42.5100196638
 20
37.5661161573
 10
42.4775176145
 20
37.5807620329
 10
42.4455771039
 20
37.6072757556
 10
42.4175378603
 20
37.642884988
 10
42.3963317419
 20
37.6838663493
 10
42.3841760993
 20
37.7259347344
  0
LINE
  5
97
330
1F
100
AcDbEntity
  8
0
  6
Continuous
 62
     7
370
     0
100
AcDbLine
 10
42.3841760993
 20
37.7259347344
 30
0.0
 11
41.2812301104
 21
38.3626519009
 31
0.0
  0
LINE
  5
98
330
1F
100
AcDbEntity
  8
0
  6
Continuous
 62
     7
370
     0
100
AcDbLine
 10
41.2812301104
 20
38.4132774425
 30
0.0
 11
41.3604329991
 21
38.4590002969
 31
0.0
  0
LINE
  5
99
330
1F
100
AcDbEntity
  8
0
  6
Continuous
 62
     7
370
     0
100
AcDbLine
 10
41.5077677618
 20
38.544054845
 30
0.0
 11
46.2585140648
 21
41.286602309
 31
0.0
  0
LINE
  5
9A
330
1F
100
AcDbEntity
  8
0
  6
Continuous
 62
     7
370
     0
100
AcDbLine
 10
47.2385311709
 20
41.8523541419
 30
0.0
 11
52.6224757964
 21
44.9604392168
 31
0.0
  0
LINE
  5
9B
330
1F
100
AcDbEntity
  8
0
  6
Continuous
 62
     7
370
     0
100
AcDbLine
 10
53.6024929024
 20
45.5261910497
 30
0.0
 11
57.093559507
 21
47.5415409026
 31
0.0
  0
LINE
  5
9C
330
1F
100
AcDbEntity
  8
0
  6
Continuous
 62
     7
370
     0
100
AcDbLine
 10
41.1659014404
 20
37.8892249959
 30
0.0
 11
41.1697908976
 21
37.8911095011
 31
0.0
  0
LINE
  5
9D
330
1F
100
AcDbEntity
  8
0
  6
Continuous
 62
     7
370
     0
100
AcDbLine
 10
41.3235107419
 20
38.3148236828
 30
0.0
 11
41.3277984371
 21
38.3357691829
 31
0.0
  0
LINE
  5
9E
330
1F
100
AcDbEntity
  8
0
  6
Continuous
 62
     7
370
     0
100
AcDbLine
 10
41.3514670452
 20
38.3221014438
 30
0.0
 11
41.3471793501
 21
38.3011559437
 31
0.0
  0
LINE
  5
9F
330
1F
100
AcDbEntity
  8
0
  6
Continuous
 62
     7
370
     0
100
AcDbLine
 10
41.1659014404
 20
37.8556156499
 30
0.0
 11
41.1659014404
 21
37.8892249959
 31
0.0
  0
LINE
  5
A0
330
1F
100
AcDbEntity
  8
0
  6
Continuous
 62
     7
370
     0
100
AcDbLine
 10
41.0852912369
 20
37.9357602759
 30
0.0
 11
41.1659014404
 21
37.8892249959
 31
0.0
  0
ARC
  5
A1
330
1F
100
AcDbEntity
  8
0
  6
Continuous
 62
     7
370
     0
100
AcDbCircle
 10
41.0052103126
 20
38.0897296927
 30
0.0
 40
0.1735498077123336
100
AcDbArc
 50
297.4793605291
 51
326.2630456084
  0
LINE
  5
A2
330
1F
100
AcDbEntity
  8
0
  6
Continuous
 62
     7
370
     0
100
AcDbLine
 10
41.1659014404
 20
37.8556156499
 30
0.0
 11
41.0852912369
 21
37.9021509298
 31
0.0
  0
LINE
  5
A3
330
1F
100
AcDbEntity
  8
0
  6
Continuous
 62
     7
370
     0
100
AcDbLine
 10
41.0852912369
 20
37.9021509298
 30
0.0
 11
41.0852912369
 21
37.9357602759
 31
0.0
  0
LINE
  5
A4
330
1F
100
AcDbEntity
  8
0
  6
Continuous
 62
     7
370
     0
100
AcDbLine
 10
43.4618771474
 20
36.530177087
 30
0.0
 11
43.4618771474
 21
36.563786433
 31
0.0
  0
LINE
  5
A5
330
1F
100
AcDbEntity
  8
0
  6
Continuous
 62
     7
370
     0
100
AcDbLine
 10
43.3812669439
 20
36.610321713
 30
0.0
 11
43.4618771474
 21
36.563786433
 31
0.0
  0
ARC
  5
A6
330
1F
100
AcDbEntity
  8
0
  6
Continuous
 62
     7
370
     0
100
AcDbCircle
 10
43.3011860196
 20
36.7642911298
 30
0.0
 40
0.1735498077123351
100
AcDbArc
 50
297.4793605291
 51
326.2630456084
  0
LINE
  5
A7
330
1F
100
AcDbEntity
  8
0
  6
Continuous
 62
     7
370
     0
100
AcDbLine
 10
43.4618771474
 20
36.530177087
 30
0.0
 11
43.3812669439
 21
36.5767123669
 31
0.0
  0
LINE
  5
A8
330
1F
100
AcDbEntity
  8
0
  6
Continuous
 62
     7
370
     0
100
AcDbLine
 10
43.3812669439
 20
36.5767123669
 30
0.0
 11
43.3812669439
 21
36.610321713
 31
0.0
  0
LINE
  5
A9
330
1F
100
AcDbEntity
  8
0
  6
Continuous
 62
     7
370
     0
100
AcDbLine
 10
43.3826812071
 20
36.7281749715
 30
0.0
 11
43.3826812071
 21
36.9053643221
 31
0.0
  0
ARC
  5
AA
330
1F
100
AcDbEntity
  8
0
  6
Continuous
 62
     7
370
     0
100
AcDbCircle
 10
43.2874975347
 20
36.9010327723
 30
0.0
 40
0.0952821800115098
100
AcDbArc
 50
2.6055773109
 51
57.3944228348
  0
LINE
  5
AB
330
1F
100
AcDbEntity
  8
0
  6
Continuous
 62
     7
370
     0
100
AcDbLine
 10
43.3388406029
 20
36.9812984759
 30
0.0
 11
41.2083277814
 21
38.2112173481
 31
0.0
  0
ARC
  5
AC
330
1F
100
AcDbEntity
  8
0
  6
Continuous
 62
     7
370
     0
100
AcDbCircle
 10
41.1912138261
 20
38.19023588
 30
0.0
 40
0.0270759943430402
100
AcDbArc
 50
50.7969048176
 51
189.2138469371
  0
LINE
  5
AD
330
1F
100
AcDbEntity
  8
0
  6
Continuous
 62
     7
370
     0
100
AcDbLine
 10
41.1644871772
 20
38.1859004786
 30
0.0
 11
41.1644871772
 21
38.008711128
 31
0.0
  0
ARC
  5
AE
330
1F
100
AcDbEntity
  8
0
  6
Continuous
 62
     7
370
     0
100
AcDbCircle
 10
41.1511239199
 20
38.0065433109
 30
0.0
 40
0.0135379494658077
100
AcDbArc
 50
230.7963730641
 51
9.2143786907
  0
LINE
  5
AF
330
1F
100
AcDbEntity
  8
0
  6
Continuous
 62
     7
370
     0
100
AcDbLine
 10
41.1425668751
 20
37.9960526932
 30
0.0
 11
41.1086258022
 21
38.0156464575
 31
0.0
  0
ARC
  5
B0
330
1F
100
AcDbEntity
  8
0
  6
Continuous
 62
     7
370
     0
100
AcDbCircle
 10
41.134296775
 20
38.0557789852
 30
0.0
 40
0.0476405145359059
100
AcDbArc
 50
182.6052186452
 51
237.3947815003
  0
LINE
  5
B1
330
1F
100
AcDbEntity
  8
0
  6
Continuous
 62
     7
370
     0
100
AcDbLine
 10
41.0867055001
 20
38.0536135344
 30
0.0
 11
41.0867055001
 21
38.3581832336
 31
0.0
  0
ARC
  5
B2
330
1F
100
AcDbEntity
  8
0
  6
Continuous
 62
     7
370
     0
100
AcDbCircle
 10
41.1000687372
 20
38.3603510856
 30
0.0
 40
0.0135379351638693
100
AcDbArc
 50
50.7962136439
 51
189.2145381109
  0
LINE
  5
B3
330
1F
100
AcDbEntity
  8
0
  6
Continuous
 62
     7
370
     0
100
AcDbLine
 10
41.1086258022
 20
38.3708416683
 30
0.0
 11
43.4385425821
 21
37.0258093412
 31
0.0
  0
ARC
  5
B4
330
1F
100
AcDbEntity
  8
0
  6
Continuous
 62
     7
370
     0
100
AcDbCircle
 10
43.4128716093
 20
36.9856768135
 30
0.0
 40
0.0476405145359062
100
AcDbArc
 50
2.6052186452
 51
57.3947815003
  0
LINE
  5
B5
330
1F
100
AcDbEntity
  8
0
  6
Continuous
 62
     7
370
     0
100
AcDbLine
 10
43.4604628842
 20
36.9878422643
 30
0.0
 11
43.4604628842
 21
36.6832725651
 31
0.0
  0
ARC
  5
B6
330
1F
100
AcDbEntity
  8
0
  6
Continuous
 62
     7
370
     0
100
AcDbCircle
 10
43.4470996471
 20
36.6811047131
 30
0.0
 40
0.0135379351638729
100
AcDbArc
 50
230.796213644
 51
9.2145381109
  0
LINE
  5
B7
330
1F
100
AcDbEntity
  8
0
  6
Continuous
 62
     7
370
     0
100
AcDbLine
 10
43.4385425821
 20
36.6706141303
 30
0.0
 11
43.4046015092
 21
36.6902078946
 31
0.0
  0
ARC
  5
B8
330
1F
100
AcDbEntity
  8
0
  6
Continuous
 62
     7
370
     0
100
AcDbCircle
 10
43.4302725942
 20
36.7303404871
 30
0.0
 40
0.0476406295272409
100
AcDbArc
 50
182.6052903152
 51
237.3947098304
  0
LINE
  5
B9
330
1F
100
AcDbEntity
  8
0
  6
Continuous
 62
     7
370
     0
100
AcDbLine
 10
43.460463299
 20
37.0811892232
 30
0.0
 11
42.5836926454
 21
37.5873381478
 31
0.0
  0
LINE
  5
BA
330
1F
100
AcDbEntity
  8
0
  6
Continuous
 62
     7
370
     0
100
AcDbLine
 10
42.390998912
 20
37.6985778723
 30
0.0
 11
41.2833232448
 21
38.338025424
 31
0.0
  0
LINE
  5
BB
330
1F
100
AcDbEntity
  8
0
  6
Continuous
 62
     7
370
     0
100
AcDbLine
 10
41.2234131175
 20
38.1314986795
 30
0.0
 11
41.2234131175
 21
38.2025092073
 31
0.0
  0
LINE
  5
BC
330
1F
100
AcDbEntity
  8
0
  6
Continuous
 62
     7
370
     0
100
AcDbLine
 10
41.1644871772
 20
38.9020067576
 30
0.0
 11
41.1644871772
 21
38.7248174013
 31
0.0
  0
ARC
  5
BD
330
1F
100
AcDbEntity
  8
0
  6
Continuous
 62
     7
370
     0
100
AcDbCircle
 10
41.2596708268
 20
38.7291489222
 30
0.0
 40
0.0952821558777196
100
AcDbArc
 50
182.605560509
 51
237.3944298546
  0
LINE
  5
BE
330
1F
100
AcDbEntity
  8
0
  6
Continuous
 62
     7
370
     0
100
AcDbLine
 10
41.2083277814
 20
38.6488832326
 30
0.0
 11
43.3388406029
 21
37.4189643604
 31
0.0
  0
ARC
  5
BF
330
1F
100
AcDbEntity
  8
0
  6
Continuous
 62
     7
370
     0
100
AcDbCircle
 10
43.3559545614
 20
37.4399458255
 30
0.0
 40
0.0270759940514409
100
AcDbArc
 50
230.7968955502
 51
9.2138855475
  0
LINE
  5
C0
330
1F
100
AcDbEntity
  8
0
  6
Continuous
 62
     7
370
     0
100
AcDbLine
 10
43.3826812071
 20
37.4442812448
 30
0.0
 11
43.3826812071
 21
37.6214706011
 31
0.0
  0
ARC
  5
C1
330
1F
100
AcDbEntity
  8
0
  6
Continuous
 62
     7
370
     0
100
AcDbCircle
 10
43.3960444865
 20
37.6236383877
 30
0.0
 40
0.0135379663690723
100
AcDbArc
 50
50.7965519282
 51
189.2142364953
  0
LINE
  5
C2
330
1F
100
AcDbEntity
  8
0
  6
Continuous
 62
     7
370
     0
100
AcDbLine
 10
43.4046015092
 20
37.6341290452
 30
0.0
 11
43.4385425821
 21
37.6145352809
 31
0.0
  0
ARC
  5
C3
330
1F
100
AcDbEntity
  8
0
  6
Continuous
 62
     7
370
     0
100
AcDbCircle
 10
43.4128714648
 20
37.5744026703
 30
0.0
 40
0.0476406622380907
100
AcDbArc
 50
2.6052991042
 51
57.3946888171
  0
LINE
  5
C4
330
1F
100
AcDbEntity
  8
0
  6
Continuous
 62
     7
370
     0
100
AcDbLine
 10
43.4604628842
 20
37.5765681947
 30
0.0
 11
43.4604628842
 21
37.2719984749
 31
0.0
  0
ARC
  5
C5
330
1F
100
AcDbEntity
  8
0
  6
Continuous
 62
     7
370
     0
100
AcDbCircle
 10
43.4470996319
 20
37.2698306492
 30
0.0
 40
0.0135379459261742
100
AcDbArc
 50
230.796333609
 51
9.2144181458
  0
LINE
  5
C6
330
1F
100
AcDbEntity
  8
0
  6
Continuous
 62
     7
370
     0
100
AcDbLine
 10
43.4385425821
 20
37.2593400401
 30
0.0
 11
41.1086258022
 21
38.6043723673
 31
0.0
  0
ARC
  5
C7
330
1F
100
AcDbEntity
  8
0
  6
Continuous
 62
     7
370
     0
100
AcDbCircle
 10
41.1342968769
 20
38.6445049538
 30
0.0
 40
0.0476406189554187
100
AcDbArc
 50
182.6052837262
 51
237.3947164194
  0
LINE
  5
C8
330
1F
100
AcDbEntity
  8
0
  6
Continuous
 62
     7
370
     0
100
AcDbLine
 10
41.0867055001
 20
38.6423394442
 30
0.0
 11
41.0867055001
 21
38.946909164
 31
0.0
  0
ARC
  5
C9
330
1F
100
AcDbEntity
  8
0
  6
Continuous
 62
     7
370
     0
100
AcDbCircle
 10
41.1000687593
 20
38.9490769855
 30
0.0
 40
0.0135379520668847
100
AcDbArc
 50
50.7963925067
 51
189.2143959168
  0
LINE
  5
CA
330
1F
100
AcDbEntity
  8
0
  6
Continuous
 62
     7
370
     0
100
AcDbLine
 10
41.1086258022
 20
38.9595676081
 30
0.0
 11
41.1425668751
 21
38.9399738438
 31
0.0
  0
ARC
  5
CB
330
1F
100
AcDbEntity
  8
0
  6
Continuous
 62
     7
370
     0
100
AcDbCircle
 10
41.1168956456
 20
38.8998411684
 30
0.0
 40
0.0476407772313914
100
AcDbArc
 50
2.6053707749
 51
57.3946171465
  0
LINE
  5
CC
330
1F
100
AcDbEntity
  8
0
  6
Continuous
 62
     7
370
     0
100
AcDbLine
 10
41.2672537218
 20
38.6829004539
 30
0.0
 11
41.2083277814
 21
38.6488832326
 31
0.0
  0
LINE
  5
CD
330
1F
100
AcDbEntity
  8
0
  6
Continuous
 62
     7
370
     0
100
AcDbLine
 10
43.3826815182
 20
37.4616899812
 30
0.0
 11
41.2672537218
 21
38.6829004539
 31
0.0
  0
LINE
  5
CE
330
1F
100
AcDbEntity
  8
0
  6
Continuous
 62
     7
370
     0
100
AcDbLine
 10
41.1644871772
 20
38.7248174013
 30
0.0
 11
41.2234131175
 21
38.7588346226
 31
0.0
  0
LINE
  5
CF
330
1F
100
AcDbEntity
  8
0
  6
Continuous
 62
     7
370
     0
100
AcDbLine
 10
41.2234131175
 20
38.7588346226
 30
0.0
 11
41.2234131175
 21
38.8097029734
 31
0.0
  0
ARC
  5
D0
330
1F
100
AcDbEntity
  8
0
  6
Continuous
 62
     7
370
     0
100
AcDbCircle
 10
41.3185967671
 20
38.7631661434
 30
0.0
 40
0.0952821558776902
100
AcDbArc
 50
182.605560509
 51
237.3944298546
  0
LINE
  5
D1
330
1F
100
AcDbEntity
  8
0
  6
Continuous
 62
     7
370
     0
100
AcDbLine
 10
43.5926918804
 20
37.5639242037
 30
0.0
 11
43.5926918804
 21
37.482270122
 31
0.0
  0
ARC
  5
D2
330
1F
100
AcDbEntity
  8
0
  6
Continuous
 62
     7
370
     0
100
AcDbCircle
 10
43.5862257853
 20
37.481221177
 30
0.0
 40
0.0065506237061878
100
AcDbArc
 50
230.7962754106
 51
9.214385381
  0
LINE
  5
D3
330
1F
100
AcDbEntity
  8
0
  6
Continuous
 62
     7
370
     0
100
AcDbLine
 10
43.5820852692
 20
37.4761450764
 30
0.0
 11
43.5594578873
 21
37.4892075859
 31
0.0
  0
ARC
  5
D4
330
1F
100
AcDbEntity
  8
0
  6
Continuous
 62
     7
370
     0
100
AcDbCircle
 10
43.5718793759
 20
37.508626596
 30
0.0
 40
0.0230519268688291
100
AcDbArc
 50
182.6052936767
 51
237.3947367934
  0
LINE
  5
D5
330
1F
100
AcDbEntity
  8
0
  6
Continuous
 62
     7
370
     0
100
AcDbLine
 10
43.5488512761
 20
37.5075787641
 30
0.0
 11
43.5488512761
 21
37.5386073154
 31
0.0
  0
ARC
  5
D6
330
1F
100
AcDbEntity
  8
0
  6
Continuous
 62
     7
370
     0
100
AcDbCircle
 10
43.5258231737
 20
37.537559482
 30
0.0
 40
0.0230519295613126
100
AcDbArc
 50
2.6052971448
 51
57.3947333252
  0
LINE
  5
D7
330
1F
100
AcDbEntity
  8
0
  6
Continuous
 62
     7
370
     0
100
AcDbLine
 10
43.538244665
 20
37.5569784936
 30
0.0
 11
43.5149100996
 21
37.5704492514
 31
0.0
  0
ARC
  5
D8
330
1F
100
AcDbEntity
  8
0
  6
Continuous
 62
     7
370
     0
100
AcDbCircle
 10
43.51076967
 20
37.5653731002
 30
0.0
 40
0.0065506082386953
100
AcDbArc
 50
50.7971418493
 51
189.2144892211
  0
LINE
  5
D9
330
1F
100
AcDbEntity
  8
0
  6
Continuous
 62
     7
370
     0
100
AcDbLine
 10
43.5043035921
 20
37.564324146
 30
0.0
 11
43.5043035921
 21
37.0784823573
 31
0.0
  0
ARC
  5
DA
330
1F
100
AcDbEntity
  8
0
  6
Continuous
 62
     7
370
     0
100
AcDbCircle
 10
43.5273318684
 20
37.0795302723
 30
0.0
 40
0.0230521069100716
100
AcDbArc
 50
182.6054802315
 51
237.3941964528
  0
LINE
  5
DB
330
1F
100
AcDbEntity
  8
0
  6
Continuous
 62
     7
370
     0
100
AcDbLine
 10
43.5149100996
 20
37.0601112277
 30
0.0
 11
43.538244665
 21
37.0466404699
 31
0.0
  0
ARC
  5
DC
330
1F
100
AcDbEntity
  8
0
  6
Continuous
 62
     7
370
     0
100
AcDbCircle
 10
43.5423851594
 20
37.0517166099
 30
0.0
 40
0.0065506405697034
100
AcDbArc
 50
230.7966401925
 51
9.2141115624
  0
LINE
  5
DD
330
1F
100
AcDbEntity
  8
0
  6
Continuous
 62
     7
370
     0
100
AcDbLine
 10
43.5488512761
 20
37.0527655267
 30
0.0
 11
43.5488512761
 21
37.0837940893
 31
0.0
  0
ARC
  5
DE
330
1F
100
AcDbEntity
  8
0
  6
Continuous
 62
     7
370
     0
100
AcDbCircle
 10
43.5553173613
 20
37.0848430359
 30
0.0
 40
0.0065506141751187
100
AcDbArc
 50
50.7960953347
 51
189.214413851
  0
LINE
  5
DF
330
1F
100
AcDbEntity
  8
0
  6
Continuous
 62
     7
370
     0
100
AcDbLine
 10
43.5594578873
 20
37.0899191161
 30
0.0
 11
43.5820852692
 21
37.0768566066
 31
0.0
  0
ARC
  5
E0
330
1F
100
AcDbEntity
  8
0
  6
Continuous
 62
     7
370
     0
100
AcDbCircle
 10
43.5696638429
 20
37.0574376314
 30
0.0
 40
0.0230518638813456
100
AcDbArc
 50
2.605260497
 51
57.3948205136
  0
LINE
  5
E1
330
1F
100
AcDbEntity
  8
0
  6
Continuous
 62
     7
370
     0
100
AcDbLine
 10
43.5926918804
 20
37.0584854471
 30
0.0
 11
43.5926918804
 21
36.9213065641
 31
0.0
  0
ARC
  5
E2
330
1F
100
AcDbEntity
  8
0
  6
Continuous
 62
     7
370
     0
100
AcDbCircle
 10
43.5862258066
 20
36.9202576226
 30
0.0
 40
0.0065506021537601
100
AcDbArc
 50
230.7958815833
 51
9.2143850333
  0
LINE
  5
E3
330
1F
100
AcDbEntity
  8
0
  6
Continuous
 62
     7
370
     0
100
AcDbLine
 10
43.5820852692
 20
36.9151815672
 30
0.0
 11
43.5594578873
 21
36.9282440767
 31
0.0
  0
ARC
  5
E4
330
1F
100
AcDbEntity
  8
0
  6
Continuous
 62
     7
370
     0
100
AcDbCircle
 10
43.5718792514
 20
36.9476630177
 30
0.0
 40
0.0230518015100154
100
AcDbArc
 50
182.6052568828
 51
237.3949049933
  0
LINE
  5
E5
330
1F
100
AcDbEntity
  8
0
  6
Continuous
 62
     7
370
     0
100
AcDbLine
 10
43.5488512761
 20
36.9466152063
 30
0.0
 11
43.5488512761
 21
36.9776437688
 31
0.0
  0
ARC
  5
E6
330
1F
100
AcDbEntity
  8
0
  6
Continuous
 62
     7
370
     0
100
AcDbCircle
 10
43.5258231764
 20
36.9765959488
 30
0.0
 40
0.0230519262528762
100
AcDbArc
 50
2.6052641113
 51
57.3947360342
  0
LINE
  5
E7
330
1F
100
AcDbEntity
  8
0
  6
Continuous
 62
     7
370
     0
100
AcDbLine
 10
43.538244665
 20
36.9960149582
 30
0.0
 11
43.5149100996
 21
37.0094857161
 31
0.0
  0
ARC
  5
E8
330
1F
100
AcDbEntity
  8
0
  6
Continuous
 62
     7
370
     0
100
AcDbCircle
 10
43.5107696711
 20
37.0044095611
 30
0.0
 40
0.0065506104845513
100
AcDbArc
 50
50.7971698921
 51
189.2145521416
  0
LINE
  5
E9
330
1F
100
AcDbEntity
  8
0
  6
Continuous
 62
     7
370
     0
100
AcDbLine
 10
43.5043035921
 20
37.0033605994
 30
0.0
 11
43.5043035921
 21
36.5175188219
 31
0.0
  0
ARC
  5
EA
330
1F
100
AcDbEntity
  8
0
  6
Continuous
 62
     7
370
     0
100
AcDbCircle
 10
43.5273315848
 20
36.5185665733
 30
0.0
 40
0.0230518161775002
100
AcDbArc
 50
182.6051057494
 51
237.3945709348
  0
LINE
  5
EB
330
1F
100
AcDbEntity
  8
0
  6
Continuous
 62
     7
370
     0
100
AcDbLine
 10
43.5149100996
 20
36.4991476924
 30
0.0
 11
43.538244665
 21
36.4856769345
 31
0.0
  0
ARC
  5
EC
330
1F
100
AcDbEntity
  8
0
  6
Continuous
 62
     7
370
     0
100
AcDbCircle
 10
43.5423852025
 20
36.490753
 30
0.0
 40
0.0065506100166469
100
AcDbArc
 50
230.7959363531
 51
9.2148154017
  0
LINE
  5
ED
330
1F
100
AcDbEntity
  8
0
  6
Continuous
 62
     7
370
     0
100
AcDbLine
 10
43.5488512761
 20
36.4918019913
 30
0.0
 11
43.5488512761
 21
36.5228305539
 31
0.0
  0
ARC
  5
EE
330
1F
100
AcDbEntity
  8
0
  6
Continuous
 62
     7
370
     0
100
AcDbCircle
 10
43.55531737
 20
36.5238795103
 30
0.0
 40
0.0065506243198425
100
AcDbArc
 50
50.7962658538
 51
189.2144859009
  0
LINE
  5
EF
330
1F
100
AcDbEntity
  8
0
  6
Continuous
 62
     7
370
     0
100
AcDbLine
 10
43.5594578873
 20
36.5289556107
 30
0.0
 11
43.5820852692
 21
36.5158931012
 31
0.0
  0
ARC
  5
F0
330
1F
100
AcDbEntity
  8
0
  6
Continuous
 62
     7
370
     0
100
AcDbCircle
 10
43.5696638044
 20
36.4964741055
 30
0.0
 40
0.0230519018653173
100
AcDbArc
 50
2.6052326983
 51
57.3947674473
  0
LINE
  5
F1
330
1F
100
AcDbEntity
  8
0
  6
Continuous
 62
     7
370
     0
100
AcDbLine
 10
43.5926918804
 20
36.4975219118
 30
0.0
 11
43.5926918804
 21
36.4158678376
 31
0.0
  0
ARC
  5
F2
330
1F
100
AcDbEntity
  8
0
  6
Continuous
 62
     7
370
     0
100
AcDbCircle
 10
43.5862258067
 20
36.4148188462
 30
0.0
 40
0.0065506100166469
100
AcDbArc
 50
230.7959363531
 51
9.2148154017
  0
LINE
  5
F3
330
1F
100
AcDbEntity
  8
0
  6
Continuous
 62
     7
370
     0
100
AcDbLine
 10
43.5820852692
 20
36.4097427808
 30
0.0
 11
43.3826812071
 21
36.5248562955
 31
0.0
  0
ARC
  5
F4
330
1F
100
AcDbEntity
  8
0
  6
Continuous
 62
     7
370
     0
100
AcDbCircle
 10
43.3785406696
 20
36.5197802301
 30
0.0
 40
0.0065506100166722
100
AcDbArc
 50
50.7959363533
 51
189.2148154014
  0
LINE
  5
F5
330
1F
100
AcDbEntity
  8
0
  6
Continuous
 62
     7
370
     0
100
AcDbLine
 10
43.3720745959
 20
36.5187312387
 30
0.0
 11
43.3720745959
 21
36.4603746338
 31
0.0
  0
ARC
  5
F6
330
1F
100
AcDbEntity
  8
0
  6
Continuous
 62
     7
370
     0
100
AcDbCircle
 10
43.3645653076
 20
36.4596354528
 30
0.0
 40
0.0075455814863366
100
AcDbArc
 50
305.6949493605
 51
5.621831075
  0
LINE
  5
F7
330
1F
100
AcDbEntity
  8
0
  6
Continuous
 62
     7
370
     0
100
AcDbLine
 10
43.3689679252
 20
36.4535074223
 30
0.0
 11
43.3309374465
 21
36.4315457572
 31
0.0
  0
LWPOLYLINE
  5
F8
330
1F
100
AcDbEntity
  8
0
  6
Continuous
 62
     7
370
     0
100
AcDbPolyline
 90
        9
 70
   128
 43
0.0
 10
43.3309374465
 20
36.4315457572
 10
43.3284652601
 20
36.4291235408
 10
43.3270670716
 20
36.4254183386
 10
43.3268634932
 20
36.4207492569
 10
43.3278718441
 20
36.415518265
 10
43.3300054246
 20
36.4101760039
 10
43.3330805681
 20
36.4051822667
 10
43.3368321977
 20
36.4009675586
 10
43.3409374708
 20
36.3978944163
  0
LINE
  5
F9
330
1F
100
AcDbEntity
  8
0
  6
Continuous
 62
     7
370
     0
100
AcDbLine
 10
43.3409374708
 20
36.3978944163
 30
0.0
 11
43.4958182202
 21
36.3084836628
 31
0.0
  0
ARC
  5
FA
330
1F
100
AcDbEntity
  8
0
  6
Continuous
 62
     7
370
     0
100
AcDbCircle
 10
43.4999587577
 20
36.3135597283
 30
0.0
 40
0.006550610016648
100
AcDbArc
 50
230.795936353
 51
9.2148154018
  0
LINE
  5
FB
330
1F
100
AcDbEntity
  8
0
  6
Continuous
 62
     7
370
     0
100
AcDbLine
 10
43.5064248314
 20
36.3146087196
 30
0.0
 11
43.5064248314
 21
36.3415544946
 31
0.0
  0
ARC
  5
FC
330
1F
100
AcDbEntity
  8
0
  6
Continuous
 62
     7
370
     0
100
AcDbCircle
 10
43.5128909507
 20
36.342603407
 30
0.0
 40
0.0065506423742229
100
AcDbArc
 50
50.7966817613
 51
189.2140699934
  0
LINE
  5
FD
330
1F
100
AcDbEntity
  8
0
  6
Continuous
 62
     7
370
     0
100
AcDbLine
 10
43.5170314426
 20
36.3476795514
 30
0.0
 11
43.5396589282
 21
36.334616982
 31
0.0
  0
ARC
  5
FE
330
1F
100
AcDbEntity
  8
0
  6
Continuous
 62
     7
370
     0
100
AcDbCircle
 10
43.527237443
 20
36.3151981012
 30
0.0
 40
0.0230518161773855
100
AcDbArc
 50
2.6051057493
 51
57.3945709349
  0
LINE
  5
FF
330
1F
100
AcDbEntity
  8
0
  6
Continuous
 62
     7
370
     0
100
AcDbLine
 10
43.5502654356
 20
36.3162458525
 30
0.0
 11
43.5502654356
 21
36.2893000775
 31
0.0
  0
ARC
  5
100
330
1F
100
AcDbEntity
  8
0
  6
Continuous
 62
     7
370
     0
100
AcDbCircle
 10
43.5732939666
 20
36.2903481464
 30
0.0
 40
0.0230523683118524
100
AcDbArc
 50
182.6058335046
 51
237.3941666411
  0
LINE
  5
101
330
1F
100
AcDbEntity
  8
0
  6
Continuous
 62
     7
370
     0
100
AcDbLine
 10
43.5608720468
 20
36.2709288881
 30
0.0
 11
43.9363458131
 21
36.0541724966
 31
0.0
  0
ARC
  5
102
330
1F
100
AcDbEntity
  8
0
  6
Continuous
 62
     7
370
     0
100
AcDbCircle
 10
43.9239239166
 20
36.0347532517
 30
0.0
 40
0.0230523444127237
100
AcDbArc
 50
2.605802722
 51
57.3941974236
  0
LINE
  5
103
330
1F
100
AcDbEntity
  8
0
  6
Continuous
 62
     7
370
     0
100
AcDbLine
 10
43.9469524242
 20
36.0358013072
 30
0.0
 11
43.9469524242
 21
36.0096720418
 31
0.0
  0
ARC
  5
104
330
1F
100
AcDbEntity
  8
0
  6
Continuous
 62
     7
370
     0
100
AcDbCircle
 10
43.940486305
 20
36.0086231294
 30
0.0
 40
0.0065506423742129
100
AcDbArc
 50
230.7966817613
 51
9.2140699935
  0
LINE
  5
105
330
1F
100
AcDbEntity
  8
0
  6
Continuous
 62
     7
370
     0
100
AcDbLine
 10
43.9363458131
 20
36.003546985
 30
0.0
 11
42.8085104586
 21
36.6546324764
 31
0.0
  0
ARC
  5
106
330
1F
100
AcDbEntity
  8
0
  6
Continuous
 62
     7
370
     0
100
AcDbCircle
 10
42.8209320947
 20
36.674051571
 30
0.0
 40
0.0230520775857451
100
AcDbArc
 50
182.6054590382
 51
237.3945411075
  0
LINE
  5
107
330
1F
100
AcDbEntity
  8
0
  6
Continuous
 62
     7
370
     0
100
AcDbLine
 10
42.7979038474
 20
36.6730036658
 30
0.0
 11
42.7979038474
 21
36.6991329312
 31
0.0
  0
ARC
  5
108
330
1F
100
AcDbEntity
  8
0
  6
Continuous
 62
     7
370
     0
100
AcDbCircle
 10
42.8043700097
 20
36.700181769
 30
0.0
 40
0.0065506729298679
100
AcDbArc
 50
50.7973856293
 51
189.2133661254
  0
LINE
  5
109
330
1F
100
AcDbEntity
  8
0
  6
Continuous
 62
     7
370
     0
100
AcDbLine
 10
42.8085104586
 20
36.705257988
 30
0.0
 11
43.2404019921
 21
36.4559323128
 31
0.0
  0
ARC
  5
10A
330
1F
100
AcDbEntity
  8
0
  6
Continuous
 62
     7
370
     0
100
AcDbCircle
 10
43.2447956688
 20
36.4620651852
 30
0.0
 40
0.0075443037436285
100
AcDbArc
 50
234.3816515969
 51
294.3139532181
  0
LINE
  5
10B
330
1F
100
AcDbEntity
  8
0
  6
Continuous
 62
     7
370
     0
100
AcDbLine
 10
43.2479019325
 20
36.4551900383
 30
0.0
 11
43.3251273209
 21
36.4997857987
 31
0.0
  0
ARC
  5
10C
330
1F
100
AcDbEntity
  8
0
  6
Continuous
 62
     7
370
     0
100
AcDbCircle
 10
43.3207239633
 20
36.5059141769
 30
0.0
 40
0.0075462956159398
100
AcDbArc
 50
305.6979722525
 51
5.6195586319
  0
LINE
  5
10D
330
1F
100
AcDbEntity
  8
0
  6
Continuous
 62
     7
370
     0
100
AcDbLine
 10
43.3282339917
 20
36.50665313
 30
0.0
 11
43.3282339917
 21
36.8494261496
 31
0.0
  0
ARC
  5
10E
330
1F
100
AcDbEntity
  8
0
  6
Continuous
 62
     7
370
     0
100
AcDbCircle
 10
43.3347000882
 20
36.8504751014
 30
0.0
 40
0.0065506261965169
100
AcDbArc
 50
50.7963090863
 51
189.2144426685
  0
LINE
  5
10F
330
1F
100
AcDbEntity
  8
0
  6
Continuous
 62
     7
370
     0
100
AcDbLine
 10
43.3388406029
 20
36.8555512064
 30
0.0
 11
43.3614679848
 21
36.8424886968
 31
0.0
  0
ARC
  5
110
330
1F
100
AcDbEntity
  8
0
  6
Continuous
 62
     7
370
     0
100
AcDbCircle
 10
43.3490462243
 20
36.8230695305
 30
0.0
 40
0.0230522050196015
100
AcDbArc
 50
2.6056231792
 51
57.3943769664
  0
LINE
  5
111
330
1F
100
AcDbEntity
  8
0
  6
Continuous
 62
     7
370
     0
100
AcDbLine
 10
43.3720745959
 20
36.8241175074
 30
0.0
 11
43.3720745959
 21
36.5938529966
 31
0.0
  0
ARC
  5
112
330
1F
100
AcDbEntity
  8
0
  6
Continuous
 62
     7
370
     0
100
AcDbCircle
 10
43.3951025597
 20
36.5949007381
 30
0.0
 40
0.0230517868676182
100
AcDbArc
 50
182.6050845714
 51
237.3949155743
  0
LINE
  5
113
330
1F
100
AcDbEntity
  8
0
  6
Continuous
 62
     7
370
     0
100
AcDbLine
 10
43.3826812071
 20
36.5754818072
 30
0.0
 11
43.449856273
 21
36.5367024671
 31
0.0
  0
ARC
  5
114
330
1F
100
AcDbEntity
  8
0
  6
Continuous
 62
     7
370
     0
100
AcDbCircle
 10
43.4539968105
 20
36.5417785326
 30
0.0
 40
0.0065506100166437
100
AcDbArc
 50
230.795936353
 51
9.2148154017
  0
LINE
  5
115
330
1F
100
AcDbEntity
  8
0
  6
Continuous
 62
     7
370
     0
100
AcDbLine
 10
43.4604628842
 20
36.5428275239
 30
0.0
 11
43.4604628842
 21
37.589632848
 31
0.0
  0
ARC
  5
116
330
1F
100
AcDbEntity
  8
0
  6
Continuous
 62
     7
370
     0
100
AcDbCircle
 10
43.4374347817
 20
37.5885850146
 30
0.0
 40
0.0230519295612424
100
AcDbArc
 50
2.6052971447
 51
57.3947333253
  0
LINE
  5
117
330
1F
100
AcDbEntity
  8
0
  6
Continuous
 62
     7
370
     0
100
AcDbLine
 10
43.449856273
 20
37.6080040262
 30
0.0
 11
43.3826812071
 21
37.6467833663
 31
0.0
  0
ARC
  5
118
330
1F
100
AcDbEntity
  8
0
  6
Continuous
 62
     7
370
     0
100
AcDbCircle
 10
43.3785406913
 20
37.6417072651
 30
0.0
 40
0.0065506239506745
100
AcDbArc
 50
50.7962810425
 51
189.2143797489
  0
LINE
  5
119
330
1F
100
AcDbEntity
  8
0
  6
Continuous
 62
     7
370
     0
100
AcDbLine
 10
43.3720745959
 20
37.6406583207
 30
0.0
 11
43.3720745959
 21
37.5630869404
 31
0.0
  0
ARC
  5
11A
330
1F
100
AcDbEntity
  8
0
  6
Continuous
 62
     7
370
     0
100
AcDbCircle
 10
43.3656084561
 20
37.5620380761
 30
0.0
 40
0.0065506550089896
100
AcDbArc
 50
230.7970044021
 51
9.2136260683
  0
LINE
  5
11B
330
1F
100
AcDbEntity
  8
0
  6
Continuous
 62
     7
370
     0
100
AcDbLine
 10
43.3614679848
 20
37.5569618986
 30
0.0
 11
43.3388406029
 21
37.5700244081
 31
0.0
  0
ARC
  5
11C
330
1F
100
AcDbEntity
  8
0
  6
Continuous
 62
     7
370
     0
100
AcDbCircle
 10
43.3512620872
 20
37.589443416
 30
0.0
 40
0.023051922666029
100
AcDbArc
 50
182.6052978537
 51
237.3947427244
  0
LINE
  5
11D
330
1F
100
AcDbEntity
  8
0
  6
Continuous
 62
     7
370
     0
100
AcDbLine
 10
43.3282339917
 20
37.5883955826
 30
0.0
 11
43.3282339917
 21
37.7165924932
 31
0.0
  0
ARC
  5
11E
330
1F
100
AcDbEntity
  8
0
  6
Continuous
 62
     7
370
     0
100
AcDbCircle
 10
43.3347000868
 20
37.7176414381
 30
0.0
 40
0.0065506237061798
100
AcDbArc
 50
50.7962754106
 51
189.214385381
  0
LINE
  5
11F
330
1F
100
AcDbEntity
  8
0
  6
Continuous
 62
     7
370
     0
100
AcDbLine
 10
43.5820852692
 20
37.5822953818
 30
0.0
 11
43.3388406029
 21
37.7227175387
 31
0.0
  0
ARC
  5
120
330
1F
100
AcDbEntity
  8
0
  6
Continuous
 62
     7
370
     0
100
AcDbCircle
 10
43.5696637806
 20
37.5628763718
 30
0.0
 40
0.0230519268688679
100
AcDbArc
 50
2.6052936767
 51
57.3947367933
  0
ARC
  5
121
330
1F
100
AcDbEntity
  8
0
  6
Continuous
 62
     7
370
     0
100
AcDbCircle
 10
60.5402217608
 20
47.359770961
 30
0.0
 40
0.0230519268688169
100
AcDbArc
 50
2.6052936766
 51
57.3947367933
  0
LINE
  5
122
330
1F
100
AcDbEntity
  8
0
  6
Continuous
 62
     7
370
     0
100
AcDbLine
 10
60.5632498606
 20
47.3608187929
 30
0.0
 11
60.5632498606
 21
47.2791647112
 31
0.0
  0
LINE
  5
123
330
1F
100
AcDbEntity
  8
0
  6
Continuous
 62
     7
370
     0
100
AcDbLine
 10
60.3093985831
 20
47.519612128
 30
0.0
 11
60.5526432494
 21
47.3791899711
 31
0.0
  0
ARC
  5
124
330
1F
100
AcDbEntity
  8
0
  6
Continuous
 62
     7
370
     0
100
AcDbCircle
 10
60.5561743306
 20
47.2782291938
 30
0.0
 40
0.0071371085278154
100
AcDbArc
 50
303.7806669364
 51
7.5318863675
  0
LINE
  5
125
330
1F
100
AcDbEntity
  8
0
  6
Continuous
 62
     7
370
     0
100
AcDbLine
 10
60.4748615724
 20
46.9099847744
 30
0.0
 11
60.4748615724
 21
46.8753769465
 31
0.0
  0
ARC
  5
126
330
1F
100
AcDbEntity
  8
0
  6
Continuous
 62
     7
370
     0
100
AcDbCircle
 10
60.3050047677
 20
47.5134790476
 30
0.0
 40
0.007544553545765
100
AcDbArc
 50
54.3817151169
 51
114.3076193263
  0
LINE
  5
127
330
1F
100
AcDbEntity
  8
0
  6
Continuous
 62
     7
370
     0
100
AcDbLine
 10
43.5820852692
 20
37.0768566066
 30
0.0
 11
60.5526432494
 21
46.8737511958
 31
0.0
  0
ARC
  5
128
330
1F
100
AcDbEntity
  8
0
  6
Continuous
 62
     7
370
     0
100
AcDbCircle
 10
60.5402218231
 20
46.8543322207
 30
0.0
 40
0.0230518638813095
100
AcDbArc
 50
2.605260497
 51
57.3948205137
  0
LINE
  5
129
330
1F
100
AcDbEntity
  8
0
  6
Continuous
 62
     7
370
     0
100
AcDbLine
 10
60.5632498606
 20
46.8553800364
 30
0.0
 11
43.5926918804
 21
37.0584854471
 31
0.0
  0
LINE
  5
12A
330
1F
100
AcDbEntity
  8
0
  6
Continuous
 62
     7
370
     0
100
AcDbLine
 10
60.5632498606
 20
46.8553800364
 30
0.0
 11
60.5632498606
 21
46.7182011534
 31
0.0
  0
LINE
  5
12B
330
1F
100
AcDbEntity
  8
0
  6
Continuous
 62
     7
370
     0
100
AcDbLine
 10
43.5926918804
 20
36.9213065641
 30
0.0
 11
60.5632498606
 21
46.7182011534
 31
0.0
  0
LINE
  5
12C
330
1F
100
AcDbEntity
  8
0
  6
Continuous
 62
     7
370
     0
100
AcDbLine
 10
60.5300158676
 20
46.8868137054
 30
0.0
 11
60.5526432494
 21
46.8737511958
 31
0.0
  0
LINE
  5
12D
330
1F
100
AcDbEntity
  8
0
  6
Continuous
 62
     7
370
     0
100
AcDbLine
 10
60.5300158676
 20
46.8868137054
 30
0.0
 11
43.5594578873
 21
37.0899191161
 31
0.0
  0
ARC
  5
12E
330
1F
100
AcDbEntity
  8
0
  6
Continuous
 62
     7
370
     0
100
AcDbCircle
 10
60.5256220024
 20
46.8806803653
 30
0.0
 40
0.0075447936461756
100
AcDbArc
 50
54.3825567299
 51
114.3063813083
  0
ARC
  5
12F
330
1F
100
AcDbEntity
  8
0
  6
Continuous
 62
     7
370
     0
100
AcDbCircle
 10
60.4976297703
 20
46.8763881972
 30
0.0
 40
0.0227906441960903
100
AcDbArc
 50
182.5431237621
 51
216.9787361571
  0
ARC
  5
130
330
1F
100
AcDbEntity
  8
0
  6
Continuous
 62
     7
370
     0
100
AcDbCircle
 10
60.5561143172
 20
46.7172927817
 30
0.0
 40
0.0071931299501173
100
AcDbArc
 50
304.0577332606
 51
7.2548669467
  0
LINE
  5
131
330
1F
100
AcDbEntity
  8
0
  6
Continuous
 62
     7
370
     0
100
AcDbLine
 10
60.4748615724
 20
46.6621017156
 30
0.0
 11
60.4748615724
 21
46.3144134111
 31
0.0
  0
ARC
  5
132
330
1F
100
AcDbEntity
  8
0
  6
Continuous
 62
     7
370
     0
100
AcDbCircle
 10
60.8944818969
 20
45.8316478409
 30
0.0
 40
0.0230523444127281
100
AcDbArc
 50
2.605802722
 51
57.3941974237
  0
LINE
  5
133
330
1F
100
AcDbEntity
  8
0
  6
Continuous
 62
     7
370
     0
100
AcDbLine
 10
60.9175104045
 20
45.8326958964
 30
0.0
 11
60.9175104045
 21
45.806566631
 31
0.0
  0
LINE
  5
134
330
1F
100
AcDbEntity
  8
0
  6
Continuous
 62
     7
370
     0
100
AcDbLine
 10
60.5314300271
 20
46.0678234773
 30
0.0
 11
60.9069037933
 21
45.8510670858
 31
0.0
  0
ARC
  5
135
330
1F
100
AcDbEntity
  8
0
  6
Continuous
 62
     7
370
     0
100
AcDbCircle
 10
60.9103749523
 20
45.8056582789
 30
0.0
 40
0.0071930370428599
100
AcDbArc
 50
304.0563598987
 51
7.2548039788
  0
ARC
  5
136
330
1F
100
AcDbEntity
  8
0
  6
Continuous
 62
     7
370
     0
100
AcDbCircle
 10
60.5402217847
 20
46.2933686948
 30
0.0
 40
0.0230519018653053
100
AcDbArc
 50
2.6052326983
 51
57.3947674473
  0
LINE
  5
137
330
1F
100
AcDbEntity
  8
0
  6
Continuous
 62
     7
370
     0
100
AcDbLine
 10
60.5632498606
 20
46.294416501
 30
0.0
 11
60.5632498606
 21
46.2127624268
 31
0.0
  0
LINE
  5
138
330
1F
100
AcDbEntity
  8
0
  6
Continuous
 62
     7
370
     0
100
AcDbLine
 10
60.5300158676
 20
46.3258501999
 30
0.0
 11
60.5526432494
 21
46.3127876904
 31
0.0
  0
ARC
  5
139
330
1F
100
AcDbEntity
  8
0
  6
Continuous
 62
     7
370
     0
100
AcDbCircle
 10
60.5256221317
 20
46.3197173335
 30
0.0
 40
0.007544333400114
100
AcDbArc
 50
54.3812601058
 51
114.309037036
  0
ARC
  5
13A
330
1F
100
AcDbEntity
  8
0
  6
Continuous
 62
     7
370
     0
100
AcDbCircle
 10
60.5561141894
 20
46.211854061
 30
0.0
 40
0.0071932560139223
100
AcDbArc
 50
304.058283488
 51
7.2546919444
  0
ARC
  5
13B
330
1F
100
AcDbEntity
  8
0
  6
Continuous
 62
     7
370
     0
100
AcDbCircle
 10
60.4976294958
 20
46.3154245633
 30
0.0
 40
0.0227903656845331
100
AcDbArc
 50
182.5429067791
 51
216.9789531401
  0
ARC
  5
13C
330
1F
100
AcDbEntity
  8
0
  6
Continuous
 62
     7
370
     0
100
AcDbCircle
 10
60.4977954232
 20
46.1120926904
 30
0.0
 40
0.0230518161774418
100
AcDbArc
 50
2.6051057494
 51
57.3945709348
  0
LINE
  5
13D
330
1F
100
AcDbEntity
  8
0
  6
Continuous
 62
     7
370
     0
100
AcDbLine
 10
60.5208234159
 20
46.1131404417
 30
0.0
 11
60.5208234159
 21
46.0861946667
 31
0.0
  0
LINE
  5
13E
330
1F
100
AcDbEntity
  8
0
  6
Continuous
 62
     7
370
     0
100
AcDbLine
 10
60.4875894228
 20
46.1445741407
 30
0.0
 11
60.5102169084
 21
46.1315115713
 31
0.0
  0
ARC
  5
13F
330
1F
100
AcDbEntity
  8
0
  6
Continuous
 62
     7
370
     0
100
AcDbCircle
 10
60.5438519468
 20
46.0872427356
 30
0.0
 40
0.0230523683118635
100
AcDbArc
 50
182.6058335046
 51
237.3941666411
  0
ARC
  5
140
330
1F
100
AcDbEntity
  8
0
  6
Continuous
 62
     7
370
     0
100
AcDbCircle
 10
60.4831956471
 20
46.1384409925
 30
0.0
 40
0.0075445855753049
100
AcDbArc
 50
54.382259826
 51
114.3069756992
  0
LINE
  5
141
330
1F
100
AcDbEntity
  8
0
  6
Continuous
 62
     7
370
     0
100
AcDbLine
 10
60.4262001112
 20
46.1285714147
 30
0.0
 11
60.4386416244
 21
46.1213890819
 31
0.0
  0
LINE
  5
142
330
1F
100
AcDbEntity
  8
0
  6
Continuous
 62
     7
370
     0
100
AcDbLine
 10
41.2030244758
 20
38.9556979441
 30
0.0
 11
40.9597798095
 21
39.096120101
 31
0.0
  0
ARC
  5
143
330
1F
100
AcDbEntity
  8
0
  6
Continuous
 62
     7
370
     0
100
AcDbCircle
 10
41.1906029872
 20
38.9362789341
 30
0.0
 40
0.023051926868864
100
AcDbArc
 50
2.6052936767
 51
57.3947367933
  0
LINE
  5
144
330
1F
100
AcDbEntity
  8
0
  6
Continuous
 62
     7
370
     0
100
AcDbLine
 10
41.213631087
 20
38.937326766
 30
0.0
 11
41.213631087
 21
38.8091298554
 31
0.0
  0
ARC
  5
145
330
1F
100
AcDbEntity
  8
0
  6
Continuous
 62
     7
370
     0
100
AcDbCircle
 10
41.2071649927
 20
38.8080809121
 30
0.0
 40
0.0065506226504965
100
AcDbArc
 50
230.7962589886
 51
9.2143714818
  0
LINE
  5
146
330
1F
100
AcDbEntity
  8
0
  6
Continuous
 62
     7
370
     0
100
AcDbLine
 10
41.2030244758
 20
38.8030048135
 30
0.0
 11
41.180397094
 21
38.8160673231
 31
0.0
  0
ARC
  5
147
330
1F
100
AcDbEntity
  8
0
  6
Continuous
 62
     7
370
     0
100
AcDbCircle
 10
41.1928188502
 20
38.8354864879
 30
0.0
 40
0.0230522014334981
100
AcDbArc
 50
182.6056569224
 51
237.3943836557
  0
LINE
  5
148
330
1F
100
AcDbEntity
  8
0
  6
Continuous
 62
     7
370
     0
100
AcDbLine
 10
41.1697904828
 20
38.8344384975
 30
0.0
 11
41.1697904828
 21
38.9120098777
 31
0.0
  0
ARC
  5
149
330
1F
100
AcDbEntity
  8
0
  6
Continuous
 62
     7
370
     0
100
AcDbCircle
 10
41.1467623803
 20
38.9109620443
 30
0.0
 40
0.0230519295612916
100
AcDbArc
 50
2.6052971448
 51
57.3947333253
  0
LINE
  5
14A
330
1F
100
AcDbEntity
  8
0
  6
Continuous
 62
     7
370
     0
100
AcDbLine
 10
41.1591838716
 20
38.9303810559
 30
0.0
 11
41.0920088057
 21
38.969160396
 31
0.0
  0
ARC
  5
14B
330
1F
100
AcDbEntity
  8
0
  6
Continuous
 62
     7
370
     0
100
AcDbCircle
 10
41.0878682899
 20
38.9640842948
 30
0.0
 40
0.0065506239506643
100
AcDbArc
 50
50.7962810425
 51
189.214379749
  0
LINE
  5
14C
330
1F
100
AcDbEntity
  8
0
  6
Continuous
 62
     7
370
     0
100
AcDbLine
 10
41.0814021945
 20
38.9630353504
 30
0.0
 11
41.0814021945
 21
37.9162300263
 31
0.0
  0
ARC
  5
14D
330
1F
100
AcDbEntity
  8
0
  6
Continuous
 62
     7
370
     0
100
AcDbCircle
 10
41.1044301583
 20
37.9172777678
 30
0.0
 40
0.0230517868675838
100
AcDbArc
 50
182.6050845713
 51
237.3949155743
  0
LINE
  5
14E
330
1F
100
AcDbEntity
  8
0
  6
Continuous
 62
     7
370
     0
100
AcDbLine
 10
41.0920088057
 20
37.8978588369
 30
0.0
 11
41.1591838716
 21
37.8590794968
 31
0.0
  0
ARC
  5
14F
330
1F
100
AcDbEntity
  8
0
  6
Continuous
 62
     7
370
     0
100
AcDbCircle
 10
41.1633244091
 20
37.8641555623
 30
0.0
 40
0.0065506100166528
100
AcDbArc
 50
230.795936353
 51
9.2148154017
  0
LINE
  5
150
330
1F
100
AcDbEntity
  8
0
  6
Continuous
 62
     7
370
     0
100
AcDbLine
 10
41.1697904828
 20
37.8652045536
 30
0.0
 11
41.1697904828
 21
38.0954690645
 31
0.0
  0
ARC
  5
151
330
1F
100
AcDbEntity
  8
0
  6
Continuous
 62
     7
370
     0
100
AcDbCircle
 10
41.1762566248
 20
38.0965179374
 30
0.0
 40
0.0065506585549632
100
AcDbArc
 50
50.7970544983
 51
189.2136972564
  0
LINE
  5
152
330
1F
100
AcDbEntity
  8
0
  6
Continuous
 62
     7
370
     0
100
AcDbLine
 10
41.180397094
 20
38.1015941213
 30
0.0
 11
41.2030244758
 21
38.0885316118
 31
0.0
  0
ARC
  5
153
330
1F
100
AcDbEntity
  8
0
  6
Continuous
 62
     7
370
     0
100
AcDbCircle
 10
41.1906029873
 20
38.0691126024
 30
0.0
 40
0.0230519262528463
100
AcDbArc
 50
2.6052641114
 51
57.3947360343
  0
LINE
  5
154
330
1F
100
AcDbEntity
  8
0
  6
Continuous
 62
     7
370
     0
100
AcDbLine
 10
41.213631087
 20
38.0701604224
 30
0.0
 11
41.213631087
 21
37.7273874028
 31
0.0
  0
ARC
  5
155
330
1F
100
AcDbEntity
  8
0
  6
Continuous
 62
     7
370
     0
100
AcDbCircle
 10
41.2352621265
 20
37.7281267685
 30
0.0
 40
0.021643671818269
100
AcDbArc
 50
181.9576520331
 51
211.142997892
  0
LINE
  5
156
330
1F
100
AcDbEntity
  8
0
  6
Continuous
 62
     7
370
     0
100
AcDbLine
 10
41.2167377578
 20
37.7169331858
 30
0.0
 11
41.2939631462
 21
37.5831748898
 31
0.0
  0
ARC
  5
157
330
1F
100
AcDbEntity
  8
0
  6
Continuous
 62
     7
370
     0
100
AcDbCircle
 10
41.3129154623
 20
37.5936179554
 30
0.0
 40
0.0216390366089231
100
AcDbArc
 50
208.8555514604
 51
238.0454691999
  0
LINE
  5
158
330
1F
100
AcDbEntity
  8
0
  6
Continuous
 62
     7
370
     0
100
AcDbLine
 10
41.3014630866
 20
37.5752579173
 30
0.0
 11
41.7333546201
 21
37.3259322421
 31
0.0
  0
ARC
  5
159
330
1F
100
AcDbEntity
  8
0
  6
Continuous
 62
     7
370
     0
100
AcDbCircle
 10
41.720932712
 20
37.3065129905
 30
0.0
 40
0.0230523563716864
100
AcDbArc
 50
2.6058181254
 51
57.3941820203
  0
LINE
  5
15A
330
1F
100
AcDbEntity
  8
0
  6
Continuous
 62
     7
370
     0
100
AcDbLine
 10
41.7439612313
 20
37.3075610527
 30
0.0
 11
41.7439612313
 21
37.2814317873
 31
0.0
  0
ARC
  5
15B
330
1F
100
AcDbEntity
  8
0
  6
Continuous
 62
     7
370
     0
100
AcDbCircle
 10
41.7374951146
 20
37.2803828705
 30
0.0
 40
0.0065506405677149
100
AcDbArc
 50
230.7966401465
 51
9.2141116083
  0
LINE
  5
15C
330
1F
100
AcDbEntity
  8
0
  6
Continuous
 62
     7
370
     0
100
AcDbLine
 10
41.7333546201
 20
37.2753067305
 30
0.0
 11
40.6055192657
 21
37.9263922219
 31
0.0
  0
ARC
  5
15D
330
1F
100
AcDbEntity
  8
0
  6
Continuous
 62
     7
370
     0
100
AcDbCircle
 10
40.6179411854
 20
37.9458114802
 30
0.0
 40
0.0230523683118908
100
AcDbArc
 50
182.6058335046
 51
237.3941666411
  0
LINE
  5
15E
330
1F
100
AcDbEntity
  8
0
  6
Continuous
 62
     7
370
     0
100
AcDbLine
 10
40.5949126545
 20
37.9447634113
 30
0.0
 11
40.5949126545
 21
37.9708926767
 31
0.0
  0
ARC
  5
15F
330
1F
100
AcDbEntity
  8
0
  6
Continuous
 62
     7
370
     0
100
AcDbCircle
 10
40.6013788598
 20
37.97194144
 30
0.0
 40
0.0065507034844068
100
AcDbArc
 50
50.7980894421
 51
189.2126623125
  0
LINE
  5
160
330
1F
100
AcDbEntity
  8
0
  6
Continuous
 62
     7
370
     0
100
AcDbLine
 10
40.6055192657
 20
37.9770177335
 30
0.0
 11
40.9809930319
 21
37.7602613421
 31
0.0
  0
ARC
  5
161
330
1F
100
AcDbEntity
  8
0
  6
Continuous
 62
     7
370
     0
100
AcDbCircle
 10
40.9851334833
 20
37.7653375566
 30
0.0
 40
0.0065506711202967
100
AcDbArc
 50
230.7973439457
 51
9.2134078091
  0
LINE
  5
162
330
1F
100
AcDbEntity
  8
0
  6
Continuous
 62
     7
370
     0
100
AcDbLine
 10
40.9915996431
 20
37.7663863989
 30
0.0
 11
40.9915996431
 21
37.7933321739
 31
0.0
  0
ARC
  5
163
330
1F
100
AcDbEntity
  8
0
  6
Continuous
 62
     7
370
     0
100
AcDbCircle
 10
40.9980656992
 20
37.7943811751
 30
0.0
 40
0.0065505943042666
100
AcDbArc
 50
50.7967971557
 51
189.2149248779
  0
LINE
  5
164
330
1F
100
AcDbEntity
  8
0
  6
Continuous
 62
     7
370
     0
100
AcDbLine
 10
41.0022061505
 20
37.7994572906
 30
0.0
 11
41.0248336361
 21
37.7863947212
 31
0.0
  0
ARC
  5
165
330
1F
100
AcDbEntity
  8
0
  6
Continuous
 62
     7
370
     0
100
AcDbCircle
 10
41.0124120116
 20
37.7669756333
 30
0.0
 40
0.0230520656295628
100
AcDbArc
 50
2.6054436379
 51
57.3945565077
  0
LINE
  5
166
330
1F
100
AcDbEntity
  8
0
  6
Continuous
 62
     7
370
     0
100
AcDbLine
 10
41.0354402473
 20
37.7680235318
 30
0.0
 11
41.0354402473
 21
37.7410777567
 31
0.0
  0
ARC
  5
167
330
1F
100
AcDbEntity
  8
0
  6
Continuous
 62
     7
370
     0
100
AcDbCircle
 10
41.0584682111
 20
37.7421254982
 30
0.0
 40
0.0230517868676024
100
AcDbArc
 50
182.6050845713
 51
237.3949155743
  0
LINE
  5
168
330
1F
100
AcDbEntity
  8
0
  6
Continuous
 62
     7
370
     0
100
AcDbLine
 10
41.0460468585
 20
37.7227065673
 30
0.0
 11
41.2009276079
 21
37.6332958139
 31
0.0
  0
LWPOLYLINE
  5
169
330
1F
100
AcDbEntity
  8
0
  6
Continuous
 62
     7
370
     0
100
AcDbPolyline
 90
        9
 70
   128
 43
0.0
 10
41.2009276079
 20
37.6332958139
 10
41.205032881
 20
37.6316291087
 10
41.2087845106
 20
37.6315122776
 10
41.2118596541
 20
37.6329555295
 10
41.2139932346
 20
37.6358344111
 10
41.2150015856
 20
37.6399011858
 10
41.2147980071
 20
37.6448053141
 10
41.2133998186
 20
37.6501248304
 10
41.2109276322
 20
37.6554013725
  0
LINE
  5
16A
330
1F
100
AcDbEntity
  8
0
  6
Continuous
 62
     7
370
     0
100
AcDbLine
 10
41.2109276322
 20
37.6554013725
 30
0.0
 11
41.1728971535
 21
37.7212720936
 31
0.0
  0
ARC
  5
16B
330
1F
100
AcDbEntity
  8
0
  6
Continuous
 62
     7
370
     0
100
AcDbCircle
 10
41.1914185549
 20
37.732464803
 30
0.0
 40
0.0216406804393239
100
AcDbArc
 50
181.9559263652
 51
211.1450820038
  0
LINE
  5
16C
330
1F
100
AcDbEntity
  8
0
  6
Continuous
 62
     7
370
     0
100
AcDbLine
 10
41.1697904828
 20
37.7317261909
 30
0.0
 11
41.1697904828
 21
37.7900827958
 31
0.0
  0
ARC
  5
16D
330
1F
100
AcDbEntity
  8
0
  6
Continuous
 62
     7
370
     0
100
AcDbCircle
 10
41.146762519
 20
37.7890350543
 30
0.0
 40
0.0230517868675472
100
AcDbArc
 50
2.6050845713
 51
57.3949155744
  0
LINE
  5
16E
330
1F
100
AcDbEntity
  8
0
  6
Continuous
 62
     7
370
     0
100
AcDbLine
 10
41.1591838716
 20
37.8084539852
 30
0.0
 11
40.9597798095
 21
37.9235675
 31
0.0
  0
ARC
  5
16F
330
1F
100
AcDbEntity
  8
0
  6
Continuous
 62
     7
370
     0
100
AcDbCircle
 10
40.9722011621
 20
37.9429864309
 30
0.0
 40
0.0230517868675591
100
AcDbArc
 50
182.6050845713
 51
237.3949155744
  0
LINE
  5
170
330
1F
100
AcDbEntity
  8
0
  6
Continuous
 62
     7
370
     0
100
AcDbLine
 10
40.9491731983
 20
37.9419386894
 30
0.0
 11
40.9491731983
 21
38.0235927636
 31
0.0
  0
ARC
  5
171
330
1F
100
AcDbEntity
  8
0
  6
Continuous
 62
     7
370
     0
100
AcDbCircle
 10
40.9556392922
 20
38.02464172
 30
0.0
 40
0.0065506243198425
100
AcDbArc
 50
50.7962658538
 51
189.2144859009
  0
LINE
  5
172
330
1F
100
AcDbEntity
  8
0
  6
Continuous
 62
     7
370
     0
100
AcDbLine
 10
40.9597798095
 20
38.0297178204
 30
0.0
 11
40.9824071914
 21
38.0166553109
 31
0.0
  0
ARC
  5
173
330
1F
100
AcDbEntity
  8
0
  6
Continuous
 62
     7
370
     0
100
AcDbCircle
 10
40.9699857266
 20
37.9972363152
 30
0.0
 40
0.0230519018652759
100
AcDbArc
 50
2.6052326982
 51
57.3947674473
  0
LINE
  5
174
330
1F
100
AcDbEntity
  8
0
  6
Continuous
 62
     7
370
     0
100
AcDbLine
 10
40.9930138026
 20
37.9982841215
 30
0.0
 11
40.9930138026
 21
37.9672555589
 31
0.0
  0
ARC
  5
175
330
1F
100
AcDbEntity
  8
0
  6
Continuous
 62
     7
370
     0
100
AcDbCircle
 10
41.0160417664
 20
37.9683033004
 30
0.0
 40
0.0230517868675669
100
AcDbArc
 50
182.6050845713
 51
237.3949155744
  0
LINE
  5
176
330
1F
100
AcDbEntity
  8
0
  6
Continuous
 62
     7
370
     0
100
AcDbLine
 10
41.0036204138
 20
37.9488843695
 30
0.0
 11
41.0269549791
 21
37.9354136117
 31
0.0
  0
ARC
  5
177
330
1F
100
AcDbEntity
  8
0
  6
Continuous
 62
     7
370
     0
100
AcDbCircle
 10
41.0310954305
 20
37.9404898262
 30
0.0
 40
0.0065506711203219
100
AcDbArc
 50
230.7973439459
 51
9.2134078089
  0
LINE
  5
178
330
1F
100
AcDbEntity
  8
0
  6
Continuous
 62
     7
370
     0
100
AcDbLine
 10
41.0375615903
 20
37.9415386685
 30
0.0
 11
41.0375615903
 21
38.427380446
 31
0.0
  0
ARC
  5
179
330
1F
100
AcDbEntity
  8
0
  6
Continuous
 62
     7
370
     0
100
AcDbCircle
 10
41.0145329234
 20
38.4263322985
 30
0.0
 40
0.0230525077095993
100
AcDbArc
 50
2.6060130504
 51
57.3939870953
  0
LINE
  5
17A
330
1F
100
AcDbEntity
  8
0
  6
Continuous
 62
     7
370
     0
100
AcDbLine
 10
41.0269549791
 20
38.4457516354
 30
0.0
 11
41.0036204138
 21
38.4592223932
 31
0.0
  0
ARC
  5
17B
330
1F
100
AcDbEntity
  8
0
  6
Continuous
 62
     7
370
     0
100
AcDbCircle
 10
40.9994798991
 20
38.4541462883
 30
0.0
 40
0.0065506261965259
100
AcDbArc
 50
50.7963090862
 51
189.2144426684
  0
LINE
  5
17C
330
1F
100
AcDbEntity
  8
0
  6
Continuous
 62
     7
370
     0
100
AcDbLine
 10
40.9930138026
 20
38.4530973364
 30
0.0
 11
40.9930138026
 21
38.4220687738
 31
0.0
  0
ARC
  5
17D
330
1F
100
AcDbEntity
  8
0
  6
Continuous
 62
     7
370
     0
100
AcDbCircle
 10
40.9865477288
 20
38.4210198323
 30
0.0
 40
0.0065506021537659
100
AcDbArc
 50
230.7958815833
 51
9.2143850332
  0
LINE
  5
17E
330
1F
100
AcDbEntity
  8
0
  6
Continuous
 62
     7
370
     0
100
AcDbLine
 10
40.9824071914
 20
38.4159437769
 30
0.0
 11
40.9597798095
 21
38.4290062864
 31
0.0
  0
ARC
  5
17F
330
1F
100
AcDbEntity
  8
0
  6
Continuous
 62
     7
370
     0
100
AcDbCircle
 10
40.9722011736
 20
38.4484252274
 30
0.0
 40
0.0230518015100235
100
AcDbArc
 50
182.6052568827
 51
237.3949049932
  0
LINE
  5
180
330
1F
100
AcDbEntity
  8
0
  6
Continuous
 62
     7
370
     0
100
AcDbLine
 10
40.9491731983
 20
38.447377416
 30
0.0
 11
40.9491731983
 21
38.584556299
 31
0.0
  0
ARC
  5
181
330
1F
100
AcDbEntity
  8
0
  6
Continuous
 62
     7
370
     0
100
AcDbCircle
 10
40.9556392835
 20
38.5856052456
 30
0.0
 40
0.0065506141751087
100
AcDbArc
 50
50.7960953347
 51
189.2144138512
  0
LINE
  5
182
330
1F
100
AcDbEntity
  8
0
  6
Continuous
 62
     7
370
     0
100
AcDbLine
 10
40.9597798095
 20
38.5906813258
 30
0.0
 11
40.9824071914
 21
38.5776188163
 31
0.0
  0
ARC
  5
183
330
1F
100
AcDbEntity
  8
0
  6
Continuous
 62
     7
370
     0
100
AcDbCircle
 10
40.9699857651
 20
38.5581998411
 30
0.0
 40
0.0230518638812798
100
AcDbArc
 50
2.6052604969
 51
57.3948205137
  0
LINE
  5
184
330
1F
100
AcDbEntity
  8
0
  6
Continuous
 62
     7
370
     0
100
AcDbLine
 10
40.9930138026
 20
38.5592476568
 30
0.0
 11
40.9930138026
 21
38.5282190943
 31
0.0
  0
ARC
  5
185
330
1F
100
AcDbEntity
  8
0
  6
Continuous
 62
     7
370
     0
100
AcDbCircle
 10
41.0160420499
 20
38.5292669995
 30
0.0
 40
0.0230520775942988
100
AcDbArc
 50
182.6054590492
 51
237.3945410965
  0
LINE
  5
186
330
1F
100
AcDbEntity
  8
0
  6
Continuous
 62
     7
370
     0
100
AcDbLine
 10
41.0036204138
 20
38.5098479049
 30
0.0
 11
41.0269549791
 21
38.496377147
 31
0.0
  0
ARC
  5
187
330
1F
100
AcDbEntity
  8
0
  6
Continuous
 62
     7
370
     0
100
AcDbCircle
 10
41.0310953875
 20
38.5014534361
 30
0.0
 40
0.006550701676789
100
AcDbArc
 50
230.7980478052
 51
9.2127039495
  0
LINE
  5
188
330
1F
100
AcDbEntity
  8
0
  6
Continuous
 62
     7
370
     0
100
AcDbLine
 10
41.0375615903
 20
38.5025022038
 30
0.0
 11
41.0375615903
 21
38.9883439925
 31
0.0
  0
ARC
  5
189
330
1F
100
AcDbEntity
  8
0
  6
Continuous
 62
     7
370
     0
100
AcDbCircle
 10
41.0145329207
 20
38.9872958317
 30
0.0
 40
0.0230525110179732
100
AcDbArc
 50
2.606046083
 51
57.393984387
  0
LINE
  5
18A
330
1F
100
AcDbEntity
  8
0
  6
Continuous
 62
     7
370
     0
100
AcDbLine
 10
41.0269549791
 20
39.0067151707
 30
0.0
 11
41.0036204138
 21
39.0201859286
 31
0.0
  0
ARC
  5
18B
330
1F
100
AcDbEntity
  8
0
  6
Continuous
 62
     7
370
     0
100
AcDbCircle
 10
40.999479898
 20
39.0151098274
 30
0.0
 40
0.0065506239506764
100
AcDbArc
 50
50.7962810426
 51
189.2143797488
  0
LINE
  5
18C
330
1F
100
AcDbEntity
  8
0
  6
Continuous
 62
     7
370
     0
100
AcDbLine
 10
40.9930138026
 20
39.014060883
 30
0.0
 11
40.9930138026
 21
38.9830323316
 31
0.0
  0
ARC
  5
18D
330
1F
100
AcDbEntity
  8
0
  6
Continuous
 62
     7
370
     0
100
AcDbCircle
 10
40.9865477075
 20
38.9819833867
 30
0.0
 40
0.0065506237061808
100
AcDbArc
 50
230.7962754105
 51
9.214385381
  0
LINE
  5
18E
330
1F
100
AcDbEntity
  8
0
  6
Continuous
 62
     7
370
     0
100
AcDbLine
 10
40.9824071914
 20
38.9769072861
 30
0.0
 11
40.9597798095
 21
38.9899697956
 31
0.0
  0
ARC
  5
18F
330
1F
100
AcDbEntity
  8
0
  6
Continuous
 62
     7
370
     0
100
AcDbCircle
 10
40.9722012981
 20
39.0093888057
 30
0.0
 40
0.0230519268688318
100
AcDbArc
 50
182.6052936766
 51
237.3947367934
  0
LINE
  5
190
330
1F
100
AcDbEntity
  8
0
  6
Continuous
 62
     7
370
     0
100
AcDbLine
 10
40.9491731983
 20
39.0083409738
 30
0.0
 11
40.9491731983
 21
39.0899950555
 31
0.0
  0
ARC
  5
191
330
1F
100
AcDbEntity
  8
0
  6
Continuous
 62
     7
370
     0
100
AcDbCircle
 10
40.9556392934
 20
39.0910440005
 30
0.0
 40
0.0065506237061963
100
AcDbArc
 50
50.7962754107
 51
189.2143853808
  0
ARC
  5
192
330
1F
100
AcDbEntity
  8
0
  6
Continuous
 62
     7
370
     0
100
AcDbCircle
 10
58.1611609675
 20
48.7331735233
 30
0.0
 40
0.0230519268688395
100
AcDbArc
 50
2.6052936767
 51
57.3947367934
  0
LINE
  5
193
330
1F
100
AcDbEntity
  8
0
  6
Continuous
 62
     7
370
     0
100
AcDbLine
 10
58.1841890673
 20
48.6060244446
 30
0.0
 11
58.1841890673
 21
48.7342213552
 31
0.0
  0
LINE
  5
194
330
1F
100
AcDbEntity
  8
0
  6
Continuous
 62
     7
370
     0
100
AcDbLine
 10
58.1735824561
 20
48.7525925334
 30
0.0
 11
57.9303377898
 21
48.8930146903
 31
0.0
  0
ARC
  5
195
330
1F
100
AcDbEntity
  8
0
  6
Continuous
 62
     7
370
     0
100
AcDbCircle
 10
58.1771135272
 20
48.6050889317
 30
0.0
 40
0.0071371178639723
100
AcDbArc
 50
303.780713544
 51
7.5318397599
  0
LINE
  5
196
330
1F
100
AcDbEntity
  8
0
  6
Continuous
 62
     7
370
     0
100
AcDbLine
 10
58.0519601748
 20
48.314948361
 30
0.0
 11
58.0519601748
 21
48.5246163332
 31
0.0
  0
ARC
  5
197
330
1F
100
AcDbEntity
  8
0
  6
Continuous
 62
     7
370
     0
100
AcDbCircle
 10
57.9259439744
 20
48.8868816099
 30
0.0
 40
0.0075445535458409
100
AcDbArc
 50
54.3817151172
 51
114.3076193259
  0
LWPOLYLINE
  5
198
330
1F
100
AcDbEntity
  8
0
  6
Continuous
 62
     7
370
     0
100
AcDbPolyline
 90
       17
 70
   128
 43
0.0
 10
59.7150802098
 20
49.5279813731
 10
59.7100159507
 20
49.5544306428
 10
59.6956063746
 20
49.5710132296
 10
59.6740484275
 20
49.5752064509
 10
59.6486076606
 20
49.5663624241
 10
59.6231735309
 20
49.5458369982
 10
59.6016089465
 20
49.5167496694
 10
59.5871993704
 20
49.4835301402
 10
59.5821417486
 20
49.451237633
 10
59.5871993704
 20
49.4247845166
 10
59.6016089465
 20
49.4082019298
 10
59.6231735309
 20
49.4040125402
 10
59.6486076606
 20
49.4128527503
 10
59.6740484275
 20
49.4333819929
 10
59.6956063746
 20
49.46246549
 10
59.7100159507
 20
49.4956850192
 10
59.7150802098
 20
49.5279813731
  0
LINE
  5
199
330
1F
100
AcDbEntity
  8
0
  6
Continuous
 62
     7
370
     0
100
AcDbLine
 10
60.0021633025
 20
49.9425006909
 30
0.0
 11
58.0572754068
 21
48.8197408073
 31
0.0
  0
LINE
  5
19A
330
1F
100
AcDbEntity
  8
0
  6
Continuous
 62
     7
370
     0
100
AcDbLine
 10
60.0021633025
 20
49.4449211388
 30
0.0
 11
60.0021633025
 21
49.9425006909
 31
0.0
  0
LINE
  5
19B
330
1F
100
AcDbEntity
  8
0
  6
Continuous
 62
     7
370
     0
100
AcDbLine
 10
58.0519589303
 20
48.3190921186
 30
0.0
 11
60.0021633025
 21
49.4449211388
 31
0.0
  0
LWPOLYLINE
  5
19C
330
1F
100
AcDbEntity
  8
0
  6
Continuous
 62
     7
370
     0
100
AcDbPolyline
 90
       17
 70
   128
 43
0.0
 10
58.4444954291
 20
48.794488392
 10
58.4394378073
 20
48.8209414934
 10
58.4250282312
 20
48.8375240802
 10
58.4034636469
 20
48.8417134698
 10
58.3780295172
 20
48.8328732747
 10
58.3525887502
 20
48.8123440171
 10
58.3310241658
 20
48.7832566883
 10
58.316621227
 20
48.7500409908
 10
58.3115569679
 20
48.7177446519
 10
58.316621227
 20
48.6912953672
 10
58.3310241658
 20
48.6747089488
 10
58.3525887502
 20
48.6705195591
 10
58.3780295172
 20
48.6793636008
 10
58.4034636469
 20
48.6998890118
 10
58.4250282312
 20
48.7289763406
 10
58.4394378073
 20
48.7621958698
 10
58.4444954291
 20
48.794488392
  0
LINE
  5
19D
330
1F
100
AcDbEntity
  8
0
  6
Continuous
 62
     7
370
     0
100
AcDbLine
 10
60.0021633025
 20
49.9425006909
 30
0.0
 11
59.965393807
 21
49.9637272689
 31
0.0
  0
LINE
  5
19E
330
1F
100
AcDbEntity
  8
0
  6
Continuous
 62
     7
370
     0
100
AcDbLine
 10
59.965393807
 20
49.9637272689
 30
0.0
 11
58.0205059112
 21
48.8409673853
 31
0.0
  0
LINE
  5
19F
330
1F
100
AcDbEntity
  8
0
  6
Continuous
 62
     7
370
     0
100
AcDbLine
 10
58.4077259336
 20
48.81571497
 30
0.0
 11
58.4029072545
 21
48.8416199918
 31
0.0
  0
ARC
  5
1A0
330
1F
100
AcDbEntity
  8
0
  6
Continuous
 62
     7
370
     0
100
AcDbCircle
 10
58.2773069978
 20
48.8161547186
 30
0.0
 40
0.130419677171124
100
AcDbArc
 50
287.6152305445
 51
359.8068099414
  0
LINE
  5
1A1
330
1F
100
AcDbEntity
  8
0
  6
Continuous
 62
     7
370
     0
100
AcDbLine
 10
59.6783107143
 20
49.549207951
 30
0.0
 11
59.6734787606
 21
49.5751460422
 31
0.0
  0
ARC
  5
1A2
330
1F
100
AcDbEntity
  8
0
  6
Continuous
 62
     7
370
     0
100
AcDbCircle
 10
59.5480940903
 20
49.549577191
 30
0.0
 40
0.1302171474474484
100
AcDbArc
 50
287.3725728557
 51
359.8375335482
  0
LWPOLYLINE
  5
1A3
330
1F
100
AcDbEntity
  8
0
  6
Continuous
 62
     7
370
     0
100
AcDbPolyline
 90
       17
 70
   128
 43
0.0
 10
62.2132885053
 20
48.0857964219
 10
62.2082242462
 20
48.1122456916
 10
62.1938146701
 20
48.1288282784
 10
62.1722567231
 20
48.1330214996
 10
62.1468159561
 20
48.1241774729
 10
62.1213818264
 20
48.1036520469
 10
62.099817242
 20
48.0745647182
 10
62.0854076659
 20
48.041345189
 10
62.0803500441
 20
48.0090526817
 10
62.0854076659
 20
47.9825995654
 10
62.099817242
 20
47.9660169786
 10
62.1213818264
 20
47.961827589
 10
62.1468159561
 20
47.970667799
 10
62.1722567231
 20
47.9911970417
 10
62.1938146701
 20
48.0202805388
 10
62.2082242462
 20
48.053500068
 10
62.2132885053
 20
48.0857964219
  0
LWPOLYLINE
  5
1A4
330
1F
100
AcDbEntity
  8
0
  6
Continuous
 62
     7
370
     0
100
AcDbPolyline
 90
       17
 70
   128
 43
0.0
 10
59.9483367783
 20
46.7782676213
 10
59.9432725191
 20
46.8047168911
 10
59.9288629431
 20
46.8212994779
 10
59.907304996
 20
46.8254926991
 10
59.881864229
 20
46.8166486724
 10
59.8564300993
 20
46.7961232464
 10
59.8348655149
 20
46.7670359177
 10
59.8204559388
 20
46.7338163885
 10
59.815398317
 20
46.7015238812
 10
59.8204559388
 20
46.6750707648
 10
59.8348655149
 20
46.6584881781
 10
59.8564300993
 20
46.6542987884
 10
59.881864229
 20
46.6631389985
 10
59.907304996
 20
46.6836682411
 10
59.9288629431
 20
46.7127517383
 10
59.9432725191
 20
46.7459712675
 10
59.9483367783
 20
46.7782676213
  0
LINE
  5
1A5
330
1F
100
AcDbEntity
  8
0
  6
Continuous
 62
     7
370
     0
100
AcDbLine
 10
62.500371598
 20
48.5003157397
 30
0.0
 11
60.5551717492
 21
47.3773757694
 31
0.0
  0
LINE
  5
1A6
330
1F
100
AcDbEntity
  8
0
  6
Continuous
 62
     7
370
     0
100
AcDbLine
 10
62.500371598
 20
48.0027361875
 30
0.0
 11
62.500371598
 21
48.5003157397
 31
0.0
  0
LINE
  5
1A7
330
1F
100
AcDbEntity
  8
0
  6
Continuous
 62
     7
370
     0
100
AcDbLine
 10
60.5486738335
 20
46.8760450504
 30
0.0
 11
62.500371598
 21
48.0027361875
 31
0.0
  0
LINE
  5
1A8
330
1F
100
AcDbEntity
  8
0
  6
Continuous
 62
     7
370
     0
100
AcDbLine
 10
60.5116310679
 20
46.9312114265
 30
0.0
 11
60.5116310679
 21
46.8812723674
 31
0.0
  0
LINE
  5
1A9
330
1F
100
AcDbEntity
  8
0
  6
Continuous
 62
     7
370
     0
100
AcDbLine
 10
60.2464709738
 20
46.7781377624
 30
0.0
 11
60.5116310679
 21
46.9312114265
 31
0.0
  0
LINE
  5
1AA
330
1F
100
AcDbEntity
  8
0
  6
Continuous
 62
     7
370
     0
100
AcDbLine
 10
60.2464709738
 20
46.7281987033
 30
0.0
 11
60.2464709738
 21
46.7781377624
 31
0.0
  0
LINE
  5
1AB
330
1F
100
AcDbEntity
  8
0
  6
Continuous
 62
     7
370
     0
100
AcDbLine
 10
58.2577304436
 20
45.9431427609
 30
0.0
 11
58.2577304436
 21
45.5801232327
 31
0.0
  0
LWPOLYLINE
  5
1AC
330
1F
100
AcDbEntity
  8
0
  6
Continuous
 62
     7
370
     0
100
AcDbPolyline
 90
       17
 70
   128
 43
0.0
 10
58.6777519976
 20
46.0447746403
 10
58.6726943758
 20
46.0712277417
 10
58.6582847997
 20
46.0878103285
 10
58.6367202153
 20
46.0919997181
 10
58.6112860856
 20
46.083159523
 10
58.5858453186
 20
46.0626302654
 10
58.5642807343
 20
46.0335429366
 10
58.5498777955
 20
46.0003272391
 10
58.5448135363
 20
45.9680309002
 10
58.5498777955
 20
45.9415816154
 10
58.5642807343
 20
45.924995197
 10
58.5858453186
 20
45.9208058074
 10
58.6112860856
 20
45.9296498491
 10
58.6367202153
 20
45.9501752601
 10
58.6582847997
 20
45.9792625889
 10
58.6726943758
 20
46.0124821181
 10
58.6777519976
 20
46.0447746403
  0
LWPOLYLINE
  5
1AD
330
1F
100
AcDbEntity
  8
0
  6
Continuous
 62
     7
370
     0
100
AcDbPolyline
 90
       17
 70
   128
 43
0.0
 10
60.9427037247
 20
47.3523034408
 10
60.9376461028
 20
47.3787565422
 10
60.9232365268
 20
47.395339129
 10
60.9016719424
 20
47.3995285186
 10
60.8762378127
 20
47.3906883235
 10
60.8507970457
 20
47.3701590659
 10
60.8292324613
 20
47.3410717371
 10
60.8148295225
 20
47.3078560396
 10
60.8097652634
 20
47.2755597007
 10
60.8148295225
 20
47.2491104159
 10
60.8292324613
 20
47.2325239975
 10
60.8507970457
 20
47.2283346079
 10
60.8762378127
 20
47.2371786496
 10
60.9016719424
 20
47.2577040606
 10
60.9232365268
 20
47.2867913894
 10
60.9376461028
 20
47.3200109186
 10
60.9427037247
 20
47.3523034408
  0
LINE
  5
1AE
330
1F
100
AcDbEntity
  8
0
  6
Continuous
 62
     7
370
     0
100
AcDbLine
 10
58.2346815933
 20
45.5668174004
 30
0.0
 11
58.2209609481
 21
45.5747381603
 31
0.0
  0
LINE
  5
1AF
330
1F
100
AcDbEntity
  8
0
  6
Continuous
 62
     7
370
     0
100
AcDbLine
 10
58.2209609481
 20
45.9219161163
 30
0.0
 11
58.2209609481
 21
45.5747381603
 31
0.0
  0
LINE
  5
1B0
330
1F
100
AcDbEntity
  8
0
  6
Continuous
 62
     7
370
     0
100
AcDbLine
 10
58.640982502
 20
46.0660012183
 30
0.0
 11
58.6361505484
 21
46.0919393094
 31
0.0
  0
ARC
  5
1B1
330
1F
100
AcDbEntity
  8
0
  6
Continuous
 62
     7
370
     0
100
AcDbCircle
 10
58.5107834926
 20
46.0663574741
 30
0.0
 40
0.1301994968559042
100
AcDbArc
 50
287.3668810467
 51
359.8432253572
  0
LINE
  5
1B2
330
1F
100
AcDbEntity
  8
0
  6
Continuous
 62
     7
370
     0
100
AcDbLine
 10
59.9115672827
 20
46.7994941993
 30
0.0
 11
59.9067486036
 21
46.8253992211
 31
0.0
  0
ARC
  5
1B3
330
1F
100
AcDbEntity
  8
0
  6
Continuous
 62
     7
370
     0
100
AcDbCircle
 10
59.7811305976
 20
46.7999469808
 30
0.0
 40
0.1304374709681443
100
AcDbArc
 50
287.6209290404
 51
359.8011114455
  0
LINE
  5
1B4
330
1F
100
AcDbEntity
  8
0
  6
Continuous
 62
     7
370
     0
100
AcDbLine
 10
62.500371598
 20
48.5003157397
 30
0.0
 11
62.4636021025
 21
48.5215423177
 31
0.0
  0
LINE
  5
1B5
330
1F
100
AcDbEntity
  8
0
  6
Continuous
 62
     7
370
     0
100
AcDbLine
 10
62.4636021025
 20
48.5215423177
 30
0.0
 11
60.5187142067
 21
47.3987824341
 31
0.0
  0
LINE
  5
1B6
330
1F
100
AcDbEntity
  8
0
  6
Continuous
 62
     7
370
     0
100
AcDbLine
 10
60.4885822176
 20
46.8679665351
 30
0.0
 11
60.4748615724
 21
46.8758872949
 31
0.0
  0
LINE
  5
1B7
330
1F
100
AcDbEntity
  8
0
  6
Continuous
 62
     7
370
     0
100
AcDbLine
 10
60.4748615724
 20
46.9099847744
 30
0.0
 11
60.4748615724
 21
46.8758872949
 31
0.0
  0
LINE
  5
1B8
330
1F
100
AcDbEntity
  8
0
  6
Continuous
 62
     7
370
     0
100
AcDbLine
 10
60.9059342291
 20
47.3735300188
 30
0.0
 11
60.9011022754
 21
47.3994681099
 31
0.0
  0
ARC
  5
1B9
330
1F
100
AcDbEntity
  8
0
  6
Continuous
 62
     7
370
     0
100
AcDbCircle
 10
60.7757352196
 20
47.3738862746
 30
0.0
 40
0.1301994968559113
100
AcDbArc
 50
287.3668810467
 51
359.8432253572
  0
LINE
  5
1BA
330
1F
100
AcDbEntity
  8
0
  6
Continuous
 62
     7
370
     0
100
AcDbLine
 10
62.1765190098
 20
48.1070229998
 30
0.0
 11
62.1716870561
 21
48.132961091
 31
0.0
  0
ARC
  5
1BB
330
1F
100
AcDbEntity
  8
0
  6
Continuous
 62
     7
370
     0
100
AcDbCircle
 10
62.0463023858
 20
48.1073922397
 30
0.0
 40
0.1302171474474484
100
AcDbArc
 50
287.3725728557
 51
359.8375335482
  0
LINE
  5
1BC
330
1F
100
AcDbEntity
  8
0
  6
Continuous
 62
     7
370
     0
100
AcDbLine
 10
45.1306495685
 20
41.6293762955
 30
0.0
 11
45.1306495685
 21
41.5089839534
 31
0.0
  0
LINE
  5
1BD
330
1F
100
AcDbEntity
  8
0
  6
Continuous
 62
     7
370
     0
100
AcDbLine
 10
46.4960728038
 20
41.2655967147
 30
0.0
 11
45.1306495685
 21
41.6293762955
 31
0.0
  0
LINE
  5
1BE
330
1F
100
AcDbEntity
  8
0
  6
Continuous
 62
     7
370
     0
100
AcDbLine
 10
46.4960728038
 20
41.8780023911
 30
0.0
 11
46.4960728038
 21
41.2655967147
 31
0.0
  0
LINE
  5
1BF
330
1F
100
AcDbEntity
  8
0
  6
Continuous
 62
     7
370
     0
100
AcDbLine
 10
46.531428143
 20
41.8575921882
 30
0.0
 11
46.4960728038
 21
41.8780023911
 31
0.0
  0
LINE
  5
1C0
330
1F
100
AcDbEntity
  8
0
  6
Continuous
 62
     7
370
     0
100
AcDbLine
 10
46.531428143
 20
41.2451865118
 30
0.0
 11
46.531428143
 21
41.8575921882
 31
0.0
  0
LINE
  5
1C1
330
1F
100
AcDbEntity
  8
0
  6
Continuous
 62
     7
370
     0
100
AcDbLine
 10
47.8968513589
 20
40.0324819927
 30
0.0
 11
46.531428143
 21
41.2451865118
 31
0.0
  0
LINE
  5
1C2
330
1F
100
AcDbEntity
  8
0
  6
Continuous
 62
     7
370
     0
100
AcDbLine
 10
47.8968513589
 20
39.7679227686
 30
0.0
 11
47.8968513589
 21
40.0324819927
 31
0.0
  0
LINE
  5
1C3
330
1F
100
AcDbEntity
  8
0
  6
Continuous
 62
     7
370
     0
100
AcDbLine
 10
47.7823000826
 20
39.8340518128
 30
0.0
 11
47.8968513589
 21
39.7679227686
 31
0.0
  0
LINE
  5
1C4
330
1F
100
AcDbEntity
  8
0
  6
Continuous
 62
     7
370
     0
100
AcDbLine
 10
47.7823000826
 20
39.5327859207
 30
0.0
 11
47.7823000826
 21
39.8340518128
 31
0.0
  0
LINE
  5
1C5
330
1F
100
AcDbEntity
  8
0
  6
Continuous
 62
     7
370
     0
100
AcDbLine
 10
47.7469447465
 20
39.5317896602
 30
0.0
 11
47.7637595138
 21
39.5220827017
 31
0.0
  0
LINE
  5
1C6
330
1F
100
AcDbEntity
  8
0
  6
Continuous
 62
     7
370
     0
100
AcDbLine
 10
47.7469447465
 20
39.8753952669
 30
0.0
 11
47.7469447465
 21
39.5317896602
 31
0.0
  0
LINE
  5
1C7
330
1F
100
AcDbEntity
  8
0
  6
Continuous
 62
     7
370
     0
100
AcDbLine
 10
47.7823000826
 20
39.8748788499
 30
0.0
 11
47.7823000826
 21
39.8958054714
 31
0.0
  0
LINE
  5
1C8
330
1F
100
AcDbEntity
  8
0
  6
Continuous
 62
     7
370
     0
100
AcDbLine
 10
47.8614960228
 20
39.8291600068
 30
0.0
 11
47.7823000826
 21
39.8748788499
 31
0.0
  0
LINE
  5
1C9
330
1F
100
AcDbEntity
  8
0
  6
Continuous
 62
     7
370
     0
100
AcDbLine
 10
47.8614960228
 20
40.0216024017
 30
0.0
 11
47.8614960228
 21
39.8291600068
 31
0.0
  0
LINE
  5
1CA
330
1F
100
AcDbEntity
  8
0
  6
Continuous
 62
     7
370
     0
100
AcDbLine
 10
46.5137504728
 20
41.2186064667
 30
0.0
 11
47.8614960228
 21
40.0216024017
 31
0.0
  0
LINE
  5
1CB
330
1F
100
AcDbEntity
  8
0
  6
Continuous
 62
     7
370
     0
100
AcDbLine
 10
45.1660049045
 20
41.5776763023
 30
0.0
 11
46.5137504728
 21
41.2186064667
 31
0.0
  0
LINE
  5
1CC
330
1F
100
AcDbEntity
  8
0
  6
Continuous
 62
     7
370
     0
100
AcDbLine
 10
45.1660049045
 20
41.5293941588
 30
0.0
 11
45.1660049045
 21
41.5776763023
 31
0.0
  0
LINE
  5
1CD
330
1F
100
AcDbEntity
  8
0
  6
Continuous
 62
     7
370
     0
100
AcDbLine
 10
47.8968513589
 20
40.0324819927
 30
0.0
 11
48.6039560055
 21
40.4406848164
 31
0.0
  0
LINE
  5
1CE
330
1F
100
AcDbEntity
  8
0
  6
Continuous
 62
     7
370
     0
100
AcDbLine
 10
46.531428143
 20
41.2451865118
 30
0.0
 11
47.2385327897
 21
41.6533893354
 31
0.0
  0
LINE
  5
1CF
330
1F
100
AcDbEntity
  8
0
  6
Continuous
 62
     7
370
     0
100
AcDbLine
 10
48.6039560055
 20
40.4406848164
 30
0.0
 11
47.2385327897
 21
41.6533893354
 31
0.0
  0
LINE
  5
1D0
330
1F
100
AcDbEntity
  8
0
  6
Continuous
 62
     7
370
     0
100
AcDbLine
 10
47.8968513589
 20
39.7679227686
 30
0.0
 11
48.6039560055
 21
40.1761255923
 31
0.0
  0
LINE
  5
1D1
330
1F
100
AcDbEntity
  8
0
  6
Continuous
 62
     7
370
     0
100
AcDbLine
 10
48.6039560055
 20
40.1761255923
 30
0.0
 11
48.6039560055
 21
40.4406848164
 31
0.0
  0
LINE
  5
1D2
330
1F
100
AcDbEntity
  8
0
  6
Continuous
 62
     7
370
     0
100
AcDbLine
 10
47.7823000826
 20
39.8748788499
 30
0.0
 11
47.8614896967
 21
39.9205940411
 31
0.0
  0
LINE
  5
1D3
330
1F
100
AcDbEntity
  8
0
  6
Continuous
 62
     7
370
     0
100
AcDbLine
 10
48.4894047292
 20
39.9409887444
 30
0.0
 11
48.4894047292
 21
40.1099965322
 31
0.0
  0
LINE
  5
1D4
330
1F
100
AcDbEntity
  8
0
  6
Continuous
 62
     7
370
     0
100
AcDbLine
 10
46.531428143
 20
41.8575921882
 30
0.0
 11
47.2385327897
 21
42.2657950118
 31
0.0
  0
LINE
  5
1D5
330
1F
100
AcDbEntity
  8
0
  6
Continuous
 62
     7
370
     0
100
AcDbLine
 10
46.4960728038
 20
41.8780023911
 30
0.0
 11
47.2031774504
 21
42.2862052147
 31
0.0
  0
LINE
  5
1D6
330
1F
100
AcDbEntity
  8
0
  6
Continuous
 62
     7
370
     0
100
AcDbLine
 10
47.2385327897
 20
42.2657950118
 30
0.0
 11
47.2031774504
 21
42.2862052147
 31
0.0
  0
LWPOLYLINE
  5
1D7
330
1F
100
AcDbEntity
  8
0
  6
Continuous
 62
     7
370
     0
100
AcDbPolyline
 90
       21
 70
   128
 43
0.0
 10
46.8849771477
 20
41.6299533085
 10
46.8513857776
 20
41.6167055443
 10
46.8210798704
 20
41.6170413151
 10
46.797026299
 20
41.6309279479
 10
46.7815879415
 20
41.6570108785
 10
46.7762648277
 20
41.6927305595
 10
46.7815879415
 20
41.734596117
 10
46.797026299
 20
41.7785038556
 10
46.8210798704
 20
41.820162091
 10
46.8513857776
 20
41.8554883772
 10
46.8849771477
 20
41.8810243835
 10
46.9185751551
 20
41.8942759793
 10
46.948874425
 20
41.893936317
 10
46.9729279965
 20
41.8800497441
 10
46.9883663539
 20
41.8539667536
 10
46.9936894677
 20
41.8182471325
 10
46.9883663539
 20
41.7763815151
 10
46.9729279965
 20
41.7324738364
 10
46.948874425
 20
41.6908155411
 10
46.9185751551
 20
41.6554931464
 10
46.8849771477
 20
41.6299533085
  0
LINE
  5
1D8
330
1F
100
AcDbEntity
  8
0
  6
Continuous
 62
     7
370
     0
100
AcDbLine
 10
47.2385327897
 20
41.6533893354
 30
0.0
 11
47.2385327897
 21
42.2657950118
 31
0.0
  0
LWPOLYLINE
  5
1D9
330
1F
100
AcDbEntity
  8
0
  6
Continuous
 62
     7
370
     0
100
AcDbPolyline
 90
       10
 70
   128
 43
0.0
 10
46.9413360057
 20
41.8962489647
 10
46.9530110146
 20
41.8743769565
 10
46.9583341284
 20
41.8386573354
 10
46.9530110146
 20
41.796791718
 10
46.9375726572
 20
41.7528840393
 10
46.9135190857
 20
41.711225744
 10
46.8832198159
 20
41.6759033493
 10
46.8496218084
 20
41.6503635114
 10
46.8160304383
 20
41.6371157472
 10
46.7958596867
 20
41.6357528186
  0
LINE
  5
1DA
330
1F
100
AcDbEntity
  8
0
  6
Continuous
 62
     7
370
     0
100
AcDbLine
 10
45.1306495685
 20
41.6293762955
 30
0.0
 11
45.8377542151
 21
42.0375791191
 31
0.0
  0
LINE
  5
1DB
330
1F
100
AcDbEntity
  8
0
  6
Continuous
 62
     7
370
     0
100
AcDbLine
 10
46.9340271129
 20
41.7455072704
 30
0.0
 11
46.7984911084
 21
41.7816171237
 31
0.0
  0
LINE
  5
1DC
330
1F
100
AcDbEntity
  8
0
  6
Continuous
 62
     7
370
     0
100
AcDbLine
 10
46.4960706697
 20
41.8621887415
 30
0.0
 11
45.8377542151
 21
42.0375791191
 31
0.0
  0
LINE
  5
1DD
330
1F
100
AcDbEntity
  8
0
  6
Continuous
 62
     7
370
     0
100
AcDbLine
 10
51.4946046628
 20
45.3032093716
 30
0.0
 11
51.4946046628
 21
45.1828170296
 31
0.0
  0
LINE
  5
1DE
330
1F
100
AcDbEntity
  8
0
  6
Continuous
 62
     7
370
     0
100
AcDbLine
 10
52.860027898
 20
44.9394297909
 30
0.0
 11
51.4946046628
 21
45.3032093716
 31
0.0
  0
LINE
  5
1DF
330
1F
100
AcDbEntity
  8
0
  6
Continuous
 62
     7
370
     0
100
AcDbLine
 10
52.860027898
 20
45.5518354673
 30
0.0
 11
52.860027898
 21
44.9394297909
 31
0.0
  0
LINE
  5
1E0
330
1F
100
AcDbEntity
  8
0
  6
Continuous
 62
     7
370
     0
100
AcDbLine
 10
52.8953832373
 20
45.5314252643
 30
0.0
 11
52.860027898
 21
45.5518354673
 31
0.0
  0
LINE
  5
1E1
330
1F
100
AcDbEntity
  8
0
  6
Continuous
 62
     7
370
     0
100
AcDbLine
 10
52.8953832373
 20
44.919019588
 30
0.0
 11
52.8953832373
 21
45.5314252643
 31
0.0
  0
LINE
  5
1E2
330
1F
100
AcDbEntity
  8
0
  6
Continuous
 62
     7
370
     0
100
AcDbLine
 10
54.2608064532
 20
43.7063150689
 30
0.0
 11
52.8953832373
 21
44.919019588
 31
0.0
  0
LINE
  5
1E3
330
1F
100
AcDbEntity
  8
0
  6
Continuous
 62
     7
370
     0
100
AcDbLine
 10
54.2608064532
 20
43.4417558448
 30
0.0
 11
54.2608064532
 21
43.7063150689
 31
0.0
  0
LINE
  5
1E4
330
1F
100
AcDbEntity
  8
0
  6
Continuous
 62
     7
370
     0
100
AcDbLine
 10
54.1462551768
 20
43.507884889
 30
0.0
 11
54.2608064532
 21
43.4417558448
 31
0.0
  0
LINE
  5
1E5
330
1F
100
AcDbEntity
  8
0
  6
Continuous
 62
     7
370
     0
100
AcDbLine
 10
54.1462551768
 20
43.2066189969
 30
0.0
 11
54.1462551768
 21
43.507884889
 31
0.0
  0
LINE
  5
1E6
330
1F
100
AcDbEntity
  8
0
  6
Continuous
 62
     7
370
     0
100
AcDbLine
 10
54.1108998408
 20
43.2056227364
 30
0.0
 11
54.1277146081
 21
43.1959157779
 31
0.0
  0
LINE
  5
1E7
330
1F
100
AcDbEntity
  8
0
  6
Continuous
 62
     7
370
     0
100
AcDbLine
 10
54.1108998408
 20
43.5492283431
 30
0.0
 11
54.1108998408
 21
43.2056227364
 31
0.0
  0
LINE
  5
1E8
330
1F
100
AcDbEntity
  8
0
  6
Continuous
 62
     7
370
     0
100
AcDbLine
 10
54.1462551768
 20
43.5487119261
 30
0.0
 11
54.1462551768
 21
43.5696385476
 31
0.0
  0
LINE
  5
1E9
330
1F
100
AcDbEntity
  8
0
  6
Continuous
 62
     7
370
     0
100
AcDbLine
 10
54.2254511171
 20
43.502993083
 30
0.0
 11
54.1462551768
 21
43.5487119261
 31
0.0
  0
LINE
  5
1EA
330
1F
100
AcDbEntity
  8
0
  6
Continuous
 62
     7
370
     0
100
AcDbLine
 10
54.2254511171
 20
43.6954354779
 30
0.0
 11
54.2254511171
 21
43.502993083
 31
0.0
  0
LINE
  5
1EB
330
1F
100
AcDbEntity
  8
0
  6
Continuous
 62
     7
370
     0
100
AcDbLine
 10
52.8777055671
 20
44.8924395429
 30
0.0
 11
54.2254511171
 21
43.6954354779
 31
0.0
  0
LINE
  5
1EC
330
1F
100
AcDbEntity
  8
0
  6
Continuous
 62
     7
370
     0
100
AcDbLine
 10
51.5299599988
 20
45.2515093785
 30
0.0
 11
52.8777055671
 21
44.8924395429
 31
0.0
  0
LINE
  5
1ED
330
1F
100
AcDbEntity
  8
0
  6
Continuous
 62
     7
370
     0
100
AcDbLine
 10
51.5299599988
 20
45.203227235
 30
0.0
 11
51.5299599988
 21
45.2515093785
 31
0.0
  0
LINE
  5
1EE
330
1F
100
AcDbEntity
  8
0
  6
Continuous
 62
     7
370
     0
100
AcDbLine
 10
54.2608064532
 20
43.7063150689
 30
0.0
 11
54.9679177371
 21
44.1145217242
 31
0.0
  0
LINE
  5
1EF
330
1F
100
AcDbEntity
  8
0
  6
Continuous
 62
     7
370
     0
100
AcDbLine
 10
52.8953832373
 20
44.919019588
 30
0.0
 11
53.6024945213
 21
45.3272262433
 31
0.0
  0
LINE
  5
1F0
330
1F
100
AcDbEntity
  8
0
  6
Continuous
 62
     7
370
     0
100
AcDbLine
 10
54.9679177371
 20
44.1145217242
 30
0.0
 11
53.6024945213
 21
45.3272262433
 31
0.0
  0
LINE
  5
1F1
330
1F
100
AcDbEntity
  8
0
  6
Continuous
 62
     7
370
     0
100
AcDbLine
 10
54.2608064532
 20
43.4417558448
 30
0.0
 11
54.9679177371
 21
43.8499625001
 31
0.0
  0
LINE
  5
1F2
330
1F
100
AcDbEntity
  8
0
  6
Continuous
 62
     7
370
     0
100
AcDbLine
 10
54.9679177371
 20
43.8499625001
 30
0.0
 11
54.9679177371
 21
44.1145217242
 31
0.0
  0
LINE
  5
1F3
330
1F
100
AcDbEntity
  8
0
  6
Continuous
 62
     7
370
     0
100
AcDbLine
 10
54.1462551768
 20
43.5487119261
 30
0.0
 11
54.2254514282
 21
43.5944309489
 31
0.0
  0
LINE
  5
1F4
330
1F
100
AcDbEntity
  8
0
  6
Continuous
 62
     7
370
     0
100
AcDbLine
 10
54.8533664608
 20
43.6148256522
 30
0.0
 11
54.8533664608
 21
43.78383344
 31
0.0
  0
LINE
  5
1F5
330
1F
100
AcDbEntity
  8
0
  6
Continuous
 62
     7
370
     0
100
AcDbLine
 10
52.8953832373
 20
45.5314252643
 30
0.0
 11
53.6024945213
 21
45.9396319196
 31
0.0
  0
LINE
  5
1F6
330
1F
100
AcDbEntity
  8
0
  6
Continuous
 62
     7
370
     0
100
AcDbLine
 10
52.860027898
 20
45.5518354673
 30
0.0
 11
53.567139182
 21
45.9600421226
 31
0.0
  0
LINE
  5
1F7
330
1F
100
AcDbEntity
  8
0
  6
Continuous
 62
     7
370
     0
100
AcDbLine
 10
53.6024945213
 20
45.9396319196
 30
0.0
 11
53.567139182
 21
45.9600421226
 31
0.0
  0
LWPOLYLINE
  5
1F8
330
1F
100
AcDbEntity
  8
0
  6
Continuous
 62
     7
370
     0
100
AcDbPolyline
 90
       21
 70
   128
 43
0.0
 10
53.2489388793
 20
45.3037902163
 10
53.2153475092
 20
45.2905424521
 10
53.185041602
 20
45.2908782229
 10
53.1609880305
 20
45.3047648557
 10
53.1455496731
 20
45.3308477863
 10
53.1402265593
 20
45.3665674673
 10
53.1455496731
 20
45.4084330248
 10
53.1609880305
 20
45.4523407634
 10
53.185041602
 20
45.4939989988
 10
53.2153475092
 20
45.5293252851
 10
53.2489388793
 20
45.5548612913
 10
53.2825302494
 20
45.5681090555
 10
53.3128361566
 20
45.5677732248
 10
53.336889728
 20
45.5538866519
 10
53.3523280855
 20
45.5278036614
 10
53.3576511993
 20
45.4920840403
 10
53.3523280855
 20
45.4502184229
 10
53.336889728
 20
45.4063107442
 10
53.3128361566
 20
45.3646524489
 10
53.2825302494
 20
45.3293262226
 10
53.2489388793
 20
45.3037902163
  0
LINE
  5
1F9
330
1F
100
AcDbEntity
  8
0
  6
Continuous
 62
     7
370
     0
100
AcDbLine
 10
53.6024945213
 20
45.3272262433
 30
0.0
 11
53.6024945213
 21
45.9396319196
 31
0.0
  0
LWPOLYLINE
  5
1FA
330
1F
100
AcDbEntity
  8
0
  6
Continuous
 62
     7
370
     0
100
AcDbPolyline
 90
       10
 70
   128
 43
0.0
 10
53.306067664
 20
45.5691110306
 10
53.3169727462
 20
45.5482138643
 10
53.32229586
 20
45.5124942432
 10
53.3169727462
 20
45.4706286258
 10
53.3015343888
 20
45.4267209471
 10
53.2774808173
 20
45.3850626518
 10
53.2471749101
 20
45.3497364255
 10
53.21358354
 20
45.3242004193
 10
53.1799921699
 20
45.3109526551
 10
53.1564563077
 20
45.3099515315
  0
LINE
  5
1FB
330
1F
100
AcDbEntity
  8
0
  6
Continuous
 62
     7
370
     0
100
AcDbLine
 10
51.4946046628
 20
45.3032093716
 30
0.0
 11
52.2017159467
 21
45.7114160269
 31
0.0
  0
LINE
  5
1FC
330
1F
100
AcDbEntity
  8
0
  6
Continuous
 62
     7
370
     0
100
AcDbLine
 10
53.2979888444
 20
45.4193441782
 30
0.0
 11
53.16245284
 21
45.4554540316
 31
0.0
  0
LINE
  5
1FD
330
1F
100
AcDbEntity
  8
0
  6
Continuous
 62
     7
370
     0
100
AcDbLine
 10
52.8600324012
 20
45.5360256493
 30
0.0
 11
52.2017159467
 21
45.7114160269
 31
0.0
  0
LINE
  5
1FE
330
1F
100
AcDbEntity
  8
0
  6
Continuous
 62
     7
370
     0
100
AcDbLine
 10
58.2578865757
 20
46.6358577007
 30
0.0
 11
58.5138129425
 21
46.4881145539
 31
0.0
  0
LINE
  5
1FF
330
1F
100
AcDbEntity
  8
0
  6
Continuous
 62
     7
370
     0
100
AcDbLine
 10
58.425410213
 20
46.4370807706
 30
0.0
 11
58.1694838721
 21
46.5848239024
 31
0.0
  0
LINE
  5
200
330
1F
100
AcDbEntity
  8
0
  6
Continuous
 62
     7
370
     0
100
AcDbLine
 10
58.7160783546
 20
46.6048799159
 30
0.0
 11
56.8417456729
 21
47.6869091414
 31
0.0
  0
ARC
  5
201
330
1F
100
AcDbEntity
  8
0
  6
Continuous
 62
     7
370
     0
100
AcDbCircle
 10
56.8674167476
 20
47.7270417279
 30
0.0
 40
0.047640618955447
100
AcDbArc
 50
182.6052837262
 51
237.3947164194
  0
LINE
  5
202
330
1F
100
AcDbEntity
  8
0
  6
Continuous
 62
     7
370
     0
100
AcDbLine
 10
56.8198253708
 20
47.7248762183
 30
0.0
 11
56.8198253708
 21
47.8133200435
 31
0.0
  0
LINE
  5
203
330
1F
100
AcDbEntity
  8
0
  6
Continuous
 62
     7
370
     0
100
AcDbLine
 10
56.8976070478
 20
47.8582225262
 30
0.0
 11
56.8976070478
 21
47.8073541754
 31
0.0
  0
ARC
  5
204
330
1F
100
AcDbEntity
  8
0
  6
Continuous
 62
     7
370
     0
100
AcDbCircle
 10
56.9927906975
 20
47.8116856963
 30
0.0
 40
0.0952821558777105
100
AcDbArc
 50
182.605560509
 51
237.3944298546
  0
LINE
  5
205
330
1F
100
AcDbEntity
  8
0
  6
Continuous
 62
     7
370
     0
100
AcDbLine
 10
56.9414476521
 20
47.7314200067
 30
0.0
 11
58.8044810582
 21
46.6559137142
 31
0.0
  0
LINE
  5
206
330
1F
100
AcDbEntity
  8
0
  6
Continuous
 62
     7
370
     0
100
AcDbLine
 10
59.8651413468
 20
47.2682198655
 30
0.0
 11
58.0021079407
 21
48.343726158
 31
0.0
  0
LINE
  5
207
330
1F
100
AcDbEntity
  8
0
  6
Continuous
 62
     7
370
     0
100
AcDbLine
 10
58.0021079407
 20
48.343726158
 30
0.0
 11
56.9414476521
 21
47.7314200067
 31
0.0
  0
LINE
  5
208
330
1F
100
AcDbEntity
  8
0
  6
Continuous
 62
     7
370
     0
100
AcDbLine
 10
56.8976070478
 20
47.8073541754
 30
0.0
 11
57.9582673364
 21
48.4196603268
 31
0.0
  0
LINE
  5
209
330
1F
100
AcDbEntity
  8
0
  6
Continuous
 62
     7
370
     0
100
AcDbLine
 10
57.9582673364
 20
48.4196603268
 30
0.0
 11
57.9582673364
 21
48.4705286775
 31
0.0
  0
ARC
  5
20A
330
1F
100
AcDbEntity
  8
0
  6
Continuous
 62
     7
370
     0
100
AcDbCircle
 10
58.0534509861
 20
48.4239918476
 30
0.0
 40
0.0952821558777105
100
AcDbArc
 50
182.605560509
 51
237.3944298546
  0
LINE
  5
20B
330
1F
100
AcDbEntity
  8
0
  6
Continuous
 62
     8
370
     0
100
AcDbLine
 10
51.1915275463
 20
41.3029471001
 30
0.0
 11
51.1915275463
 21
40.9846621233
 31
0.0
  0
LINE
  5
20C
330
1F
100
AcDbEntity
  8
0
  6
Continuous
 62
     8
370
     0
100
AcDbLine
 10
43.4385425821
 20
37.0258093412
 30
0.0
 11
43.4604589433
 21
37.0384613872
 31
0.0
  0
LINE
  5
20D
330
1F
100
AcDbEntity
  8
0
  6
Continuous
 62
     8
370
     0
100
AcDbLine
 10
41.125935878
 20
38.3808345624
 30
0.0
 11
41.1086258022
 21
38.3708416683
 31
0.0
  0
LINE
  5
20E
330
1F
100
AcDbEntity
  8
0
  6
Continuous
 62
     8
370
     0
100
AcDbLine
 10
41.2083331742
 20
38.2112122339
 30
0.0
 11
41.1644871772
 21
38.1859004786
 31
0.0
  0
LINE
  5
20F
330
1F
100
AcDbEntity
  8
0
  6
Continuous
 62
     8
370
     0
100
AcDbLine
 10
41.1644871772
 20
38.008711128
 30
0.0
 11
41.1697903791
 21
38.0117726013
 31
0.0
  0
LINE
  5
210
330
1F
100
AcDbEntity
  8
0
  6
Continuous
 62
     8
370
     0
100
AcDbLine
 10
43.3388406029
 20
37.4189643604
 30
0.0
 11
43.3826799626
 21
37.444272284
 31
0.0
  0
LINE
  5
211
330
1F
100
AcDbEntity
  8
0
  6
Continuous
 62
     8
370
     0
100
AcDbLine
 10
41.1697903791
 20
38.9050682309
 30
0.0
 11
41.1644871772
 21
38.9020067576
 31
0.0
  0
LINE
  5
212
330
1F
100
AcDbEntity
  8
0
  6
Continuous
 62
     8
370
     0
100
AcDbLine
 10
43.5820852692
 20
37.5822953818
 30
0.0
 11
47.8402377913
 21
40.040474509
 31
0.0
  0
LINE
  5
213
330
1F
100
AcDbEntity
  8
0
  6
Continuous
 62
     8
370
     0
100
AcDbLine
 10
48.5762014139
 20
40.4653372649
 30
0.0
 11
54.2041995229
 21
43.7143114169
 31
0.0
  0
LINE
  5
214
330
1F
100
AcDbEntity
  8
0
  6
Continuous
 62
     8
370
     0
100
AcDbLine
 10
54.9401631455
 20
44.1391741727
 30
0.0
 11
60.5526432494
 21
47.3791899711
 31
0.0
  0
LINE
  5
215
330
1F
100
AcDbEntity
  8
0
  6
Continuous
 62
     8
370
     0
100
AcDbLine
 10
60.5632498606
 20
47.3608187929
 30
0.0
 11
54.9568760717
 21
44.1243280952
 31
0.0
  0
LINE
  5
216
330
1F
100
AcDbEntity
  8
0
  6
Continuous
 62
     8
370
     0
100
AcDbLine
 10
54.2209190864
 20
43.699469171
 30
0.0
 11
48.5929143401
 21
40.4504911874
 31
0.0
  0
LINE
  5
217
330
1F
100
AcDbEntity
  8
0
  6
Continuous
 62
     8
370
     0
100
AcDbLine
 10
47.8569573548
 20
40.0256322631
 30
0.0
 11
43.5926918804
 21
37.5639242037
 31
0.0
  0
LINE
  5
218
330
1F
100
AcDbEntity
  8
0
  6
Continuous
 62
     8
370
     0
100
AcDbLine
 10
43.5926918804
 20
37.482270122
 30
0.0
 11
47.86149063
 21
39.9465951855
 31
0.0
  0
LINE
  5
219
330
1F
100
AcDbEntity
  8
0
  6
Continuous
 62
     8
370
     0
100
AcDbLine
 10
48.6039521683
 20
40.3752091082
 30
0.0
 11
54.2254523616
 21
43.6204320933
 31
0.0
  0
LINE
  5
21A
330
1F
100
AcDbEntity
  8
0
  6
Continuous
 62
     8
370
     0
100
AcDbLine
 10
54.9679138999
 20
44.0490460161
 30
0.0
 11
60.5632498606
 21
47.2791647112
 31
0.0
  0
LINE
  5
21B
330
1F
100
AcDbEntity
  8
0
  6
Continuous
 62
     8
370
     0
100
AcDbLine
 10
60.3093985831
 20
47.519612128
 30
0.0
 11
54.7485168414
 21
44.3093834301
 31
0.0
  0
LINE
  5
21C
330
1F
100
AcDbEntity
  8
0
  6
Continuous
 62
     8
370
     0
100
AcDbLine
 10
54.0125532188
 20
43.8845206742
 30
0.0
 11
48.3845551098
 21
40.6355465223
 31
0.0
  0
LINE
  5
21D
330
1F
100
AcDbEntity
  8
0
  6
Continuous
 62
     8
370
     0
100
AcDbLine
 10
47.6485981245
 20
40.2106875981
 30
0.0
 11
43.3388406029
 21
37.7227175387
 31
0.0
  0
LINE
  5
21E
330
1F
100
AcDbEntity
  8
0
  6
Continuous
 62
     8
370
     0
100
AcDbLine
 10
43.5149099959
 20
37.5704470926
 30
0.0
 11
43.5043035921
 21
37.564324146
 31
0.0
  0
LINE
  5
21F
330
1F
100
AcDbEntity
  8
0
  6
Continuous
 62
     8
370
     0
100
AcDbLine
 10
43.5043035921
 20
37.0784823573
 30
0.0
 11
47.7504757896
 21
39.5297453903
 31
0.0
  0
LINE
  5
220
330
1F
100
AcDbEntity
  8
0
  6
Continuous
 62
     8
370
     0
100
AcDbLine
 10
48.4894062848
 20
39.9563208852
 30
0.0
 11
54.1144375212
 21
43.2035822981
 31
0.0
  0
LINE
  5
221
330
1F
100
AcDbEntity
  8
0
  6
Continuous
 62
     8
370
     0
100
AcDbLine
 10
54.8533680164
 20
43.6301577931
 30
0.0
 11
58.2214056471
 21
45.5744845311
 31
0.0
  0
LINE
  5
222
330
1F
100
AcDbEntity
  8
0
  6
Continuous
 62
     8
370
     0
100
AcDbLine
 10
60.2464654772
 20
46.7435266873
 30
0.0
 11
60.4748615724
 21
46.8753769465
 31
0.0
  0
LINE
  5
223
330
1F
100
AcDbEntity
  8
0
  6
Continuous
 62
     8
370
     0
100
AcDbLine
 10
43.3826809997
 20
37.6467812672
 30
0.0
 11
43.3720745959
 21
37.6406583207
 31
0.0
  0
LINE
  5
224
330
1F
100
AcDbEntity
  8
0
  6
Continuous
 62
     8
370
     0
100
AcDbLine
 10
43.3720745959
 20
37.5630869404
 30
0.0
 11
43.3826809997
 21
37.569209887
 31
0.0
  0
LINE
  5
225
330
1F
100
AcDbEntity
  8
0
  6
Continuous
 62
     8
370
     0
100
AcDbLine
 10
43.538244665
 20
37.0466404699
 30
0.0
 11
43.5488510687
 21
37.0527634165
 31
0.0
  0
LINE
  5
226
330
1F
100
AcDbEntity
  8
0
  6
Continuous
 62
     8
370
     0
100
AcDbLine
 10
43.5488466093
 20
37.0797023578
 30
0.0
 11
43.5149100996
 21
37.0601112277
 31
0.0
  0
LINE
  5
227
330
1F
100
AcDbEntity
  8
0
  6
Continuous
 62
     8
370
     0
100
AcDbLine
 10
43.5149099959
 20
37.009483546
 30
0.0
 11
43.5043035921
 21
37.0033605994
 31
0.0
  0
LINE
  5
228
330
1F
100
AcDbEntity
  8
0
  6
Continuous
 62
     8
370
     0
100
AcDbLine
 10
43.5043035921
 20
36.5175188219
 30
0.0
 11
51.2169976626
 21
40.9699623358
 31
0.0
  0
LINE
  5
229
330
1F
100
AcDbEntity
  8
0
  6
Continuous
 62
     8
370
     0
100
AcDbLine
 10
53.3243400881
 20
42.1865052233
 30
0.0
 11
60.4748615724
 21
46.3144134111
 31
0.0
  0
LINE
  5
22A
330
1F
100
AcDbEntity
  8
0
  6
Continuous
 62
     8
370
     0
100
AcDbLine
 10
43.9363458131
 20
36.0541724966
 30
0.0
 11
51.7678541725
 21
40.5752060396
 31
0.0
  0
LINE
  5
22B
330
1F
100
AcDbEntity
  8
0
  6
Continuous
 62
     8
370
     0
100
AcDbLine
 10
52.2296641608
 20
40.8418032712
 30
0.0
 11
60.9069037933
 21
45.8510670858
 31
0.0
  0
LINE
  5
22C
330
1F
100
AcDbEntity
  8
0
  6
Continuous
 62
     8
370
     0
100
AcDbLine
 10
60.9175104045
 20
45.8326958964
 30
0.0
 11
52.2508771757
 21
40.8295550283
 31
0.0
  0
LINE
  5
22D
330
1F
100
AcDbEntity
  8
0
  6
Continuous
 62
     8
370
     0
100
AcDbLine
 10
51.7890671874
 20
40.5629577968
 30
0.0
 11
43.9469524242
 21
36.0358013072
 31
0.0
  0
LINE
  5
22E
330
1F
100
AcDbEntity
  8
0
  6
Continuous
 62
     8
370
     0
100
AcDbLine
 10
43.9469524242
 20
36.0096720418
 30
0.0
 11
51.8117003769
 21
40.5498943935
 31
0.0
  0
LINE
  5
22F
330
1F
100
AcDbEntity
  8
0
  6
Continuous
 62
     8
370
     0
100
AcDbLine
 10
52.2735103652
 20
40.8164916251
 30
0.0
 11
60.9175104045
 21
45.806566631
 31
0.0
  0
LINE
  5
230
330
1F
100
AcDbEntity
  8
0
  6
Continuous
 62
     8
370
     0
100
AcDbLine
 10
60.5314300271
 20
46.0678234773
 30
0.0
 11
51.8541903946
 21
41.0585596626
 31
0.0
  0
LINE
  5
231
330
1F
100
AcDbEntity
  8
0
  6
Continuous
 62
     8
370
     0
100
AcDbLine
 10
51.6740341884
 20
40.9545576985
 30
0.0
 11
51.6340710112
 21
40.9314874474
 31
0.0
  0
LINE
  5
232
330
1F
100
AcDbEntity
  8
0
  6
Continuous
 62
     8
370
     0
100
AcDbLine
 10
51.3923804063
 20
40.791962431
 30
0.0
 11
43.5608720468
 21
36.2709288881
 31
0.0
  0
LINE
  5
233
330
1F
100
AcDbEntity
  8
0
  6
Continuous
 62
     8
370
     0
100
AcDbLine
 10
43.5820852692
 20
36.5158931012
 30
0.0
 11
51.2572985123
 21
40.9466993941
 31
0.0
  0
LINE
  5
234
330
1F
100
AcDbEntity
  8
0
  6
Continuous
 62
     8
370
     0
100
AcDbLine
 10
51.652629314
 20
41.1749190081
 30
0.0
 11
60.5526432494
 21
46.3127876904
 31
0.0
  0
LINE
  5
235
330
1F
100
AcDbEntity
  8
0
  6
Continuous
 62
     8
370
     0
100
AcDbLine
 10
60.5632498606
 20
46.294416501
 30
0.0
 11
51.673842329
 21
41.1626707653
 31
0.0
  0
LINE
  5
236
330
1F
100
AcDbEntity
  8
0
  6
Continuous
 62
     8
370
     0
100
AcDbLine
 10
51.2785115272
 20
40.9344511512
 30
0.0
 11
43.5926918804
 21
36.4975219118
 31
0.0
  0
LINE
  5
237
330
1F
100
AcDbEntity
  8
0
  6
Continuous
 62
     8
370
     0
100
AcDbLine
 10
43.5926918804
 20
36.4158678376
 30
0.0
 11
51.3047421328
 21
40.8679396833
 31
0.0
  0
LINE
  5
238
330
1F
100
AcDbEntity
  8
0
  6
Continuous
 62
     8
370
     0
100
AcDbLine
 10
51.7445627496
 20
41.1218427209
 30
0.0
 11
60.5632498606
 21
46.2127624268
 31
0.0
  0
LINE
  5
239
330
1F
100
AcDbEntity
  8
0
  6
Continuous
 62
     8
370
     0
100
AcDbLine
 10
60.5300158676
 20
46.3258501999
 30
0.0
 11
51.6300019321
 21
41.1879815176
 31
0.0
  0
LINE
  5
23A
330
1F
100
AcDbEntity
  8
0
  6
Continuous
 62
     8
370
     0
100
AcDbLine
 10
51.2346711304
 20
40.9597619036
 30
0.0
 11
43.5594578873
 21
36.5289556107
 31
0.0
  0
LINE
  5
23B
330
1F
100
AcDbEntity
  8
0
  6
Continuous
 62
     8
370
     0
100
AcDbLine
 10
43.3614679848
 20
36.8424886968
 30
0.0
 11
43.3826807923
 21
36.85473459
 31
0.0
  0
LINE
  5
23C
330
1F
100
AcDbEntity
  8
0
  6
Continuous
 62
     8
370
     0
100
AcDbLine
 10
43.3826809997
 20
36.830240454
 30
0.0
 11
43.3720745959
 21
36.8241175074
 31
0.0
  0
LINE
  5
23D
330
1F
100
AcDbEntity
  8
0
  6
Continuous
 62
     8
370
     0
100
AcDbLine
 10
43.3720745959
 20
36.5938529966
 30
0.0
 11
43.381267255
 21
36.5991598057
 31
0.0
  0
LINE
  5
23E
330
1F
100
AcDbEntity
  8
0
  6
Continuous
 62
     8
370
     0
100
AcDbLine
 10
43.3826799626
 20
36.8808591301
 30
0.0
 11
43.3388406029
 21
36.8555512064
 31
0.0
  0
LINE
  5
23F
330
1F
100
AcDbEntity
  8
0
  6
Continuous
 62
     8
370
     0
100
AcDbLine
 10
43.538244665
 20
36.4856769345
 30
0.0
 11
43.5488510687
 21
36.4917998811
 31
0.0
  0
LINE
  5
240
330
1F
100
AcDbEntity
  8
0
  6
Continuous
 62
     8
370
     0
100
AcDbLine
 10
43.5488466093
 20
36.5187388224
 30
0.0
 11
43.5149100996
 21
36.4991476924
 31
0.0
  0
LINE
  5
241
330
1F
100
AcDbEntity
  8
0
  6
Continuous
 62
     8
370
     0
100
AcDbLine
 10
43.449856273
 20
36.5367024671
 30
0.0
 11
43.4502146871
 21
36.5369093752
 31
0.0
  0
LINE
  5
242
330
1F
100
AcDbEntity
  8
0
  6
Continuous
 62
     8
370
     0
100
AcDbLine
 10
43.3830396213
 20
36.5756887153
 30
0.0
 11
43.3826812071
 21
36.5754818072
 31
0.0
  0
LINE
  5
243
330
1F
100
AcDbEntity
  8
0
  6
Continuous
 62
     8
370
     0
100
AcDbLine
 10
43.5396589282
 20
36.334616982
 30
0.0
 11
51.3266110996
 21
40.8299287852
 31
0.0
  0
LINE
  5
244
330
1F
100
AcDbEntity
  8
0
  6
Continuous
 62
     8
370
     0
100
AcDbLine
 10
51.7884210879
 20
41.0965260167
 30
0.0
 11
60.5102169084
 21
46.1315115713
 31
0.0
  0
LINE
  5
245
330
1F
100
AcDbEntity
  8
0
  6
Continuous
 62
     8
370
     0
100
AcDbLine
 10
60.5208234159
 20
46.1131404417
 30
0.0
 11
51.8096339991
 21
41.0842778338
 31
0.0
  0
LINE
  5
246
330
1F
100
AcDbEntity
  8
0
  6
Continuous
 62
     8
370
     0
100
AcDbLine
 10
51.3478240108
 20
40.8176806022
 30
0.0
 11
43.5502654356
 21
36.3162458525
 31
0.0
  0
LINE
  5
247
330
1F
100
AcDbEntity
  8
0
  6
Continuous
 62
     8
370
     0
100
AcDbLine
 10
43.5502654356
 20
36.2893000775
 30
0.0
 11
51.371160754
 21
40.8042068423
 31
0.0
  0
LINE
  5
248
330
1F
100
AcDbEntity
  8
0
  6
Continuous
 62
     8
370
     0
100
AcDbLine
 10
51.6366925369
 20
40.9574950777
 30
0.0
 11
51.6501994403
 21
40.9652924471
 31
0.0
  0
LINE
  5
249
330
1F
100
AcDbEntity
  8
0
  6
Continuous
 62
     8
370
     0
100
AcDbLine
 10
51.8329707423
 20
41.0708040738
 30
0.0
 11
60.5208234159
 21
46.0861946667
 31
0.0
  0
LINE
  5
24A
330
1F
100
AcDbEntity
  8
0
  6
Continuous
 62
     8
370
     0
100
AcDbLine
 10
60.4875894228
 20
46.1445741407
 30
0.0
 11
51.7657936023
 21
41.1095885861
 31
0.0
  0
LINE
  5
24B
330
1F
100
AcDbEntity
  8
0
  6
Continuous
 62
     8
370
     0
100
AcDbLine
 10
51.3047402661
 20
40.8434281605
 30
0.0
 11
43.5170314426
 21
36.3476795514
 31
0.0
  0
LINE
  5
24C
330
1F
100
AcDbEntity
  8
0
  6
Continuous
 62
     8
370
     0
100
AcDbLine
 10
43.4958182202
 20
36.3084836628
 30
0.0
 11
43.506424624
 21
36.3146066093
 31
0.0
  0
LINE
  5
24D
330
1F
100
AcDbEntity
  8
0
  6
Continuous
 62
     8
370
     0
100
AcDbLine
 10
43.3826809997
 20
36.5248541853
 30
0.0
 11
43.3720745959
 21
36.5187312387
 31
0.0
  0
LINE
  5
24E
330
1F
100
AcDbEntity
  8
0
  6
Continuous
 62
     8
370
     0
100
AcDbLine
 10
43.4717719083
 20
36.4734235293
 30
0.0
 11
43.3409374708
 21
36.3978944163
 31
0.0
  0
LINE
  5
24F
330
1F
100
AcDbEntity
  8
0
  6
Continuous
 62
     8
370
     0
100
AcDbLine
 10
43.3720745959
 20
36.4603746338
 30
0.0
 11
43.4332240314
 21
36.4956754515
 31
0.0
  0
LINE
  5
250
330
1F
100
AcDbEntity
  8
0
  6
Continuous
 62
     8
370
     0
100
AcDbLine
 10
43.4376175085
 20
36.4931379832
 30
0.0
 11
43.3689679252
 21
36.4535074223
 31
0.0
  0
LINE
  5
251
330
1F
100
AcDbEntity
  8
0
  6
Continuous
 62
     8
370
     0
100
AcDbLine
 10
43.3309374465
 20
36.4315457572
 30
0.0
 11
43.4376253903
 21
36.4931353962
 31
0.0
  0
LINE
  5
252
330
1F
100
AcDbEntity
  8
0
  6
Continuous
 62
     8
370
     0
100
AcDbLine
 10
43.2404019921
 20
36.4559323128
 30
0.0
 11
43.3282333694
 21
36.5066362877
 31
0.0
  0
LINE
  5
253
330
1F
100
AcDbEntity
  8
0
  6
Continuous
 62
     8
370
     0
100
AcDbLine
 10
43.4604591507
 20
37.0816199569
 30
0.0
 11
43.460087462
 21
37.0814053855
 31
0.0
  0
LINE
  5
254
330
1F
100
AcDbEntity
  8
0
  6
Continuous
 62
     8
370
     0
100
AcDbLine
 10
43.3127593365
 20
36.9963546691
 30
0.0
 11
42.8085104586
 21
36.705257988
 31
0.0
  0
LINE
  5
255
330
1F
100
AcDbEntity
  8
0
  6
Continuous
 62
     8
370
     0
100
AcDbLine
 10
41.2030244758
 20
38.9556979441
 30
0.0
 11
45.5621104035
 21
41.4721446861
 31
0.0
  0
LINE
  5
256
330
1F
100
AcDbEntity
  8
0
  6
Continuous
 62
     8
370
     0
100
AcDbLine
 10
46.3193266574
 20
41.9092763249
 30
0.0
 11
51.9260654978
 21
45.1459777623
 31
0.0
  0
LINE
  5
257
330
1F
100
AcDbEntity
  8
0
  6
Continuous
 62
     8
370
     0
100
AcDbLine
 10
52.683288389
 20
45.5831132327
 30
0.0
 11
58.1735824561
 21
48.7525925334
 31
0.0
  0
LINE
  5
258
330
1F
100
AcDbEntity
  8
0
  6
Continuous
 62
     8
370
     0
100
AcDbLine
 10
58.1841890673
 20
48.7342213552
 30
0.0
 11
52.7123201421
 21
45.5753786626
 31
0.0
  0
LINE
  5
259
330
1F
100
AcDbEntity
  8
0
  6
Continuous
 62
     8
370
     0
100
AcDbLine
 10
51.9550972509
 20
45.1382431922
 30
0.0
 11
46.3483584106
 21
41.9015417548
 31
0.0
  0
LINE
  5
25A
330
1F
100
AcDbEntity
  8
0
  6
Continuous
 62
     8
370
     0
100
AcDbLine
 10
45.5911421566
 20
41.464410116
 30
0.0
 11
41.213631087
 21
38.937326766
 31
0.0
  0
LINE
  5
25B
330
1F
100
AcDbEntity
  8
0
  6
Continuous
 62
     8
370
     0
100
AcDbLine
 10
41.213631087
 20
38.8091298554
 30
0.0
 11
45.7430832048
 21
41.4239269055
 31
0.0
  0
LINE
  5
25C
330
1F
100
AcDbEntity
  8
0
  6
Continuous
 62
     8
370
     0
100
AcDbLine
 10
47.2199618751
 20
42.276510814
 30
0.0
 11
52.1070449364
 21
45.0977638133
 31
0.0
  0
LINE
  5
25D
330
1F
100
AcDbEntity
  8
0
  6
Continuous
 62
     8
370
     0
100
AcDbLine
 10
53.5839236066
 20
45.9503477219
 30
0.0
 11
58.1841890673
 21
48.6060244446
 31
0.0
  0
LINE
  5
25E
330
1F
100
AcDbEntity
  8
0
  6
Continuous
 62
     8
370
     0
100
AcDbLine
 10
57.9303377898
 20
48.8930146903
 30
0.0
 11
52.3504202746
 21
45.6717968743
 31
0.0
  0
LINE
  5
25F
330
1F
100
AcDbEntity
  8
0
  6
Continuous
 62
     8
370
     0
100
AcDbLine
 10
51.5931973834
 20
45.2346614039
 30
0.0
 11
45.986458543
 21
41.9979599665
 31
0.0
  0
LINE
  5
260
330
1F
100
AcDbEntity
  8
0
  6
Continuous
 62
     8
370
     0
100
AcDbLine
 10
45.2292422891
 20
41.5608283277
 30
0.0
 11
40.9597798095
 21
39.096120101
 31
0.0
  0
LINE
  5
261
330
1F
100
AcDbEntity
  8
0
  6
Continuous
 62
     8
370
     0
100
AcDbLine
 10
41.0920085983
 20
38.969158297
 30
0.0
 11
41.0814021945
 21
38.9630353504
 31
0.0
  0
LINE
  5
262
330
1F
100
AcDbEntity
  8
0
  6
Continuous
 62
     8
370
     0
100
AcDbLine
 10
41.0814021945
 20
37.9162300263
 30
0.0
 11
41.0852916517
 21
37.9184753622
 31
0.0
  0
LINE
  5
263
330
1F
100
AcDbEntity
  8
0
  6
Continuous
 62
     8
370
     0
100
AcDbLine
 10
41.0036202063
 20
39.0201838296
 30
0.0
 11
40.9930138026
 21
39.014060883
 31
0.0
  0
LINE
  5
264
330
1F
100
AcDbEntity
  8
0
  6
Continuous
 62
     8
370
     0
100
AcDbLine
 10
40.9930138026
 20
38.9830323316
 30
0.0
 11
41.0300366563
 21
39.0044051702
 31
0.0
  0
LINE
  5
265
330
1F
100
AcDbEntity
  8
0
  6
Continuous
 62
     8
370
     0
100
AcDbLine
 10
41.7333546201
 20
37.3259322421
 30
0.0
 11
42.2376034981
 21
37.6170289232
 31
0.0
  0
LINE
  5
266
330
1F
100
AcDbEntity
  8
0
  6
Continuous
 62
     8
370
     0
100
AcDbLine
 10
42.3849316235
 20
37.7020796396
 30
0.0
 11
42.3891662203
 21
37.7045242203
 31
0.0
  0
LINE
  5
267
330
1F
100
AcDbEntity
  8
0
  6
Continuous
 62
     8
370
     0
100
AcDbLine
 10
42.2588165131
 20
37.6047806803
 30
0.0
 11
41.7439612313
 21
37.3075610527
 31
0.0
  0
LINE
  5
268
330
1F
100
AcDbEntity
  8
0
  6
Continuous
 62
     8
370
     0
100
AcDbLine
 10
41.7439612313
 20
37.2814317873
 30
0.0
 11
42.2814497026
 21
37.5917172771
 31
0.0
  0
LINE
  5
269
330
1F
100
AcDbEntity
  8
0
  6
Continuous
 62
     8
370
     0
100
AcDbLine
 10
41.9733236757
 20
37.9631147796
 30
0.0
 11
41.95304009
 21
37.9514053149
 31
0.0
  0
LINE
  5
26A
330
1F
100
AcDbEntity
  8
0
  6
Continuous
 62
     8
370
     0
100
AcDbLine
 10
41.8057119646
 20
37.8663545984
 30
0.0
 11
41.3014630866
 21
37.5752579173
 31
0.0
  0
LINE
  5
26B
330
1F
100
AcDbEntity
  8
0
  6
Continuous
 62
     8
370
     0
100
AcDbLine
 10
41.0269549791
 20
38.496377147
 30
0.0
 11
41.0375613829
 21
38.5025000936
 31
0.0
  0
LINE
  5
26C
330
1F
100
AcDbEntity
  8
0
  6
Continuous
 62
     8
370
     0
100
AcDbLine
 10
40.9824071914
 20
38.5776188163
 30
0.0
 11
41.0375565086
 21
38.6094558395
 31
0.0
  0
LINE
  5
26D
330
1F
100
AcDbEntity
  8
0
  6
Continuous
 62
     8
370
     0
100
AcDbLine
 10
41.037556716
 20
38.5849617334
 30
0.0
 11
40.9930138026
 21
38.5592476568
 31
0.0
  0
LINE
  5
26E
330
1F
100
AcDbEntity
  8
0
  6
Continuous
 62
     8
370
     0
100
AcDbLine
 10
40.9930138026
 20
38.5282190943
 30
0.0
 11
41.037556716
 21
38.5539331709
 31
0.0
  0
LINE
  5
26F
330
1F
100
AcDbEntity
  8
0
  6
Continuous
 62
     8
370
     0
100
AcDbLine
 10
41.0375556789
 20
38.6355803795
 30
0.0
 11
40.9597798095
 21
38.5906813258
 31
0.0
  0
LINE
  5
270
330
1F
100
AcDbEntity
  8
0
  6
Continuous
 62
     8
370
     0
100
AcDbLine
 10
41.0375569234
 20
38.5294390349
 30
0.0
 11
41.0036204138
 21
38.5098479049
 31
0.0
  0
LINE
  5
271
330
1F
100
AcDbEntity
  8
0
  6
Continuous
 62
     8
370
     0
100
AcDbLine
 10
41.0036202063
 20
38.459220283
 30
0.0
 11
40.9930138026
 21
38.4530973364
 31
0.0
  0
LINE
  5
272
330
1F
100
AcDbEntity
  8
0
  6
Continuous
 62
     8
370
     0
100
AcDbLine
 10
41.2030244758
 20
38.0885316118
 30
0.0
 11
41.3119359148
 21
38.1514048472
 31
0.0
  0
LINE
  5
273
330
1F
100
AcDbEntity
  8
0
  6
Continuous
 62
     8
370
     0
100
AcDbLine
 10
41.4592640402
 20
38.2364555636
 30
0.0
 11
41.4795476259
 21
38.2481650284
 31
0.0
  0
LINE
  5
274
330
1F
100
AcDbEntity
  8
0
  6
Continuous
 62
     8
370
     0
100
AcDbLine
 10
41.5007606408
 20
38.2359167855
 30
0.0
 11
41.4804770551
 21
38.2242073208
 31
0.0
  0
LINE
  5
275
330
1F
100
AcDbEntity
  8
0
  6
Continuous
 62
     8
370
     0
100
AcDbLine
 10
41.3331489297
 20
38.1391566043
 30
0.0
 11
41.213631087
 21
38.0701604224
 31
0.0
  0
LINE
  5
276
330
1F
100
AcDbEntity
  8
0
  6
Continuous
 62
     8
370
     0
100
AcDbLine
 10
40.9930138026
 20
38.4220687738
 30
0.0
 11
41.0300366563
 21
38.4434416123
 31
0.0
  0
LINE
  5
277
330
1F
100
AcDbEntity
  8
0
  6
Continuous
 62
     8
370
     0
100
AcDbLine
 10
41.213631087
 20
37.7273874028
 30
0.0
 11
41.6300286757
 21
37.9677686141
 31
0.0
  0
LINE
  5
278
330
1F
100
AcDbEntity
  8
0
  6
Continuous
 62
     8
370
     0
100
AcDbLine
 10
41.7773568011
 20
38.0528193305
 30
0.0
 11
41.7976403868
 21
38.0645287953
 31
0.0
  0
LINE
  5
279
330
1F
100
AcDbEntity
  8
0
  6
Continuous
 62
     8
370
     0
100
AcDbLine
 10
41.456920244
 20
38.2612275379
 30
0.0
 11
41.4366366583
 21
38.2495180731
 31
0.0
  0
LINE
  5
27A
330
1F
100
AcDbEntity
  8
0
  6
Continuous
 62
     8
370
     0
100
AcDbLine
 10
41.2893085329
 20
38.1644673567
 30
0.0
 11
41.180397094
 21
38.1015941213
 31
0.0
  0
LINE
  5
27B
330
1F
100
AcDbEntity
  8
0
  6
Continuous
 62
     8
370
     0
100
AcDbLine
 10
41.2939631462
 20
37.5831748898
 30
0.0
 11
41.795099131
 21
37.8724745358
 31
0.0
  0
LINE
  5
27C
330
1F
100
AcDbEntity
  8
0
  6
Continuous
 62
     8
370
     0
100
AcDbLine
 10
41.9424338937
 20
37.9575290839
 30
0.0
 11
41.9627108421
 21
37.9692347171
 31
0.0
  0
LINE
  5
27D
330
1F
100
AcDbEntity
  8
0
  6
Continuous
 62
     8
370
     0
100
AcDbLine
 10
41.8082538427
 20
38.0584081531
 30
0.0
 11
41.787970257
 21
38.0466986883
 31
0.0
  0
LINE
  5
27E
330
1F
100
AcDbEntity
  8
0
  6
Continuous
 62
     8
370
     0
100
AcDbLine
 10
41.6406421316
 20
37.9616479719
 30
0.0
 11
41.2167377578
 21
37.7169331858
 31
0.0
  0
LINE
  5
27F
330
1F
100
AcDbEntity
  8
0
  6
Continuous
 62
     8
370
     0
100
AcDbLine
 10
41.1591838716
 20
37.8590794968
 30
0.0
 11
41.1595422857
 21
37.8592864049
 31
0.0
  0
LINE
  5
280
330
1F
100
AcDbEntity
  8
0
  6
Continuous
 62
     8
370
     0
100
AcDbLine
 10
41.0923672199
 20
37.898065745
 30
0.0
 11
41.0920088057
 21
37.8978588369
 31
0.0
  0
LINE
  5
281
330
1F
100
AcDbEntity
  8
0
  6
Continuous
 62
     8
370
     0
100
AcDbLine
 10
41.2009276079
 20
37.6332958139
 30
0.0
 11
41.2150650547
 21
37.6414571882
 31
0.0
  0
LINE
  5
282
330
1F
100
AcDbEntity
  8
0
  6
Continuous
 62
     8
370
     0
100
AcDbLine
 10
41.0269549791
 20
37.9354136117
 30
0.0
 11
41.0375613829
 21
37.9415365582
 31
0.0
  0
LINE
  5
283
330
1F
100
AcDbEntity
  8
0
  6
Continuous
 62
     8
370
     0
100
AcDbLine
 10
40.9824071914
 20
38.0166553109
 30
0.0
 11
41.0375565086
 21
38.048492334
 31
0.0
  0
LINE
  5
284
330
1F
100
AcDbEntity
  8
0
  6
Continuous
 62
     8
370
     0
100
AcDbLine
 10
41.037556716
 20
38.0239981981
 30
0.0
 11
40.9930138026
 21
37.9982841215
 31
0.0
  0
LINE
  5
285
330
1F
100
AcDbEntity
  8
0
  6
Continuous
 62
     8
370
     0
100
AcDbLine
 10
40.9930138026
 20
37.9672555589
 30
0.0
 11
41.037556716
 21
37.9929696355
 31
0.0
  0
LINE
  5
286
330
1F
100
AcDbEntity
  8
0
  6
Continuous
 62
     8
370
     0
100
AcDbLine
 10
41.0375556789
 20
38.0746168741
 30
0.0
 11
40.9597798095
 21
38.0297178204
 31
0.0
  0
LINE
  5
287
330
1F
100
AcDbEntity
  8
0
  6
Continuous
 62
     8
370
     0
100
AcDbLine
 10
41.0375569234
 20
37.9684754995
 30
0.0
 11
41.0036204138
 21
37.9488843695
 31
0.0
  0
LINE
  5
288
330
1F
100
AcDbEntity
  8
0
  6
Continuous
 62
     8
370
     0
100
AcDbLine
 10
41.169334687
 20
37.7938791158
 30
0.0
 11
41.0460468585
 21
37.7227065673
 31
0.0
  0
LINE
  5
289
330
1F
100
AcDbEntity
  8
0
  6
Continuous
 62
     8
370
     0
100
AcDbLine
 10
41.0248336361
 20
37.7863947212
 30
0.0
 11
41.1111118855
 21
37.8362020944
 31
0.0
  0
LINE
  5
28A
330
1F
100
AcDbEntity
  8
0
  6
Continuous
 62
     8
370
     0
100
AcDbLine
 10
41.1323249005
 20
37.8239538515
 30
0.0
 11
41.0354402473
 21
37.7680235318
 31
0.0
  0
LINE
  5
28B
330
1F
100
AcDbEntity
  8
0
  6
Continuous
 62
     8
370
     0
100
AcDbLine
 10
41.0354402473
 20
37.7410777567
 30
0.0
 11
41.155668281
 21
37.8104839232
 31
0.0
  0
LINE
  5
28C
330
1F
100
AcDbEntity
  8
0
  6
Continuous
 62
     8
370
     0
100
AcDbLine
 10
41.0884844
 20
37.8492646638
 30
0.0
 11
41.0022061505
 21
37.7994572906
 31
0.0
  0
LINE
  5
28D
330
1F
100
AcDbEntity
  8
0
  6
Continuous
 62
     8
370
     0
100
AcDbLine
 10
40.9809930319
 20
37.7602613421
 30
0.0
 11
40.9915994357
 21
37.7663842886
 31
0.0
  0
LINE
  5
28E
330
1F
100
AcDbEntity
  8
0
  6
Continuous
 62
     8
370
     0
100
AcDbLine
 10
41.037560968
 20
38.2264300994
 30
0.0
 11
40.6055192657
 21
37.9770177335
 31
0.0
  0
ENDSEC
  0
SECTION
  2
OBJECTS
  0
DICTIONARY
  5
C
330
0
100
AcDbDictionary
281
     1
  3
ACAD_GROUP
350
D
  3
ACAD_LAYOUT
350
1A
  3
ACAD_MLINESTYLE
350
17
  3
ACAD_PLOTSETTINGS
350
19
  3
ACAD_PLOTSTYLENAME
350
E
  0
DICTIONARY
  5
D
102
{ACAD_REACTORS
330
C
102
}
330
C
100
AcDbDictionary
281
     1
  0
DICTIONARY
  5
1A
102
{ACAD_REACTORS
330
C
102
}
330
C
100
AcDbDictionary
281
     1
  3
Layout1
350
1E
  3
Layout2
350
26
  3
Model
350
22
  0
DICTIONARY
  5
17
102
{ACAD_REACTORS
330
C
102
}
330
C
100
AcDbDictionary
281
     1
  3
Standard
350
18
  0
DICTIONARY
  5
19
102
{ACAD_REACTORS
330
C
102
}
330
C
100
AcDbDictionary
281
     1
  0
ACDBDICTIONARYWDFLT
  5
E
102
{ACAD_REACTORS
330
C
102
}
330
C
100
AcDbDictionary
281
     1
  3
Normal
350
F
100
AcDbDictionaryWithDefault
340
F
  0
LAYOUT
  5
1E
102
{ACAD_REACTORS
330
1A
102
}
330
1A
100
AcDbPlotSettings
  1

  2
none_device
  4

  6

 40
0.0
 41
0.0
 42
0.0
 43
0.0
 44
0.0
 45
0.0
 46
0.0
 47
0.0
 48
0.0
 49
0.0
140
0.0
141
0.0
142
1.0
143
1.0
 70
   688
 72
     0
 73
     0
 74
     5
  7

 75
    16
147
1.0
148
0.0
149
0.0
100
AcDbLayout
  1
Layout1
 70
     1
 71
     1
 10
0.0
 20
0.0
 11
12.0
 21
9.0
 12
0.0
 22
0.0
 32
0.0
 14
1.0000000000E+20
 24
1.0000000000E+20
 34
1.0000000000E+20
 15
-1.0000000000E+20
 25
-1.0000000000E+20
 35
-1.0000000000E+20
146
0.0
 13
0.0
 23
0.0
 33
0.0
 16
1.0
 26
0.0
 36
0.0
 17
0.0
 27
1.0
 37
0.0
 76
     0
330
1B
  0
LAYOUT
  5
26
102
{ACAD_REACTORS
330
1A
102
}
330
1A
100
AcDbPlotSettings
  1

  2
none_device
  4

  6

 40
0.0
 41
0.0
 42
0.0
 43
0.0
 44
0.0
 45
0.0
 46
0.0
 47
0.0
 48
0.0
 49
0.0
140
0.0
141
0.0
142
1.0
143
1.0
 70
   688
 72
     0
 73
     0
 74
     5
  7

 75
    16
147
1.0
148
0.0
149
0.0
100
AcDbLayout
  1
Layout2
 70
     1
 71
     2
 10
0.0
 20
0.0
 11
0.0
 21
0.0
 12
0.0
 22
0.0
 32
0.0
 14
0.0
 24
0.0
 34
0.0
 15
0.0
 25
0.0
 35
0.0
146
0.0
 13
0.0
 23
0.0
 33
0.0
 16
1.0
 26
0.0
 36
0.0
 17
0.0
 27
1.0
 37
0.0
 76
     0
330
23
  0
LAYOUT
  5
22
102
{ACAD_REACTORS
330
1A
102
}
330
1A
100
AcDbPlotSettings
  1

  2
none_device
  4

  6

 40
0.0
 41
0.0
 42
0.0
 43
0.0
 44
0.0
 45
0.0
 46
0.0
 47
0.0
 48
0.0
 49
0.0
140
0.0
141
0.0
142
1.0
143
1.0
 70
  1712
 72
     0
 73
     0
 74
     0
  7

 75
     0
147
1.0
148
0.0
149
0.0
100
AcDbLayout
  1
Model
 70
     1
 71
     0
 10
0.0
 20
0.0
 11
100.0
 21
100.0
 12
0.0
 22
0.0
 32
0.0
 14
0.0
 24
0.0
 34
0.0
 15
100.0
 25
100.0
 35
0.0
146
0.0
 13
0.0
 23
0.0
 33
0.0
 16
1.0
 26
0.0
 36
0.0
 17
0.0
 27
1.0
 37
0.0
 76
     0
330
1F
331
29
  0
MLINESTYLE
  5
18
102
{ACAD_REACTORS
330
17
102
}
330
17
100
AcDbMlineStyle
  2
Standard
 70
     0
  3

 62
   256
 51
90.0
 52
90.0
 71
     2
 49
0.5
 62
   256
  6
BYLAYER
 49
-0.5
 62
   256
  6
BYLAYER
  0
ACDBPLACEHOLDER
  5
F
102
{ACAD_REACTORS
330
E
102
}
330
E
  0
ENDSEC
  0
EOF
